» » »

Nirvana, Love Buzz Bass tabs (ver.2)

Artists:  A B C D E F G H I J K L M N O P Q R S T U V W X Y Z # 

Love Buzz Bass tabs (ver.2)

Nirvana Tabs
Rating:
0/5 (0 votes)
Love Buzz lessons Tabs too difficult? Try these video lessons and learn fast
                Nirvana -> Love Buzz (Cover)

Intro
G:--------6h7h6-----------------------------------------|
D:7--5-7-8----------------------------------------------|
A:------------------------------------------------------|
E:------------------------------------------------------|

"Can you feel my love buzz........."
G:-------------------6---------6-5-------6-6-7-99-7-6---------6-------6-----|
D:7-77-5-5-7-77-5-5-7-7-5-7-5-7---5-7-5-7-7----------7-5-77-5-7-7-5-5-7-7-5-|
A:--------------------------------------------------------------------------|
E:--------------------------------------------------------------------------|


-> SOLO <-
G:-----78------78------78------78-----------------------|
D:57578---57578---57578---57578-------------------------|
A:------------------------------------------------------|
E:------------------------------------------------------|

G:------------------------------------------------------|
D:------------------------------------------------------|
A:-------4---------4-----4---------4--------------------|
E:3-5-3-5-5-3-5-3-5-5-3-5-5-3-5-3-5-5-3-5---------------|

G:-------6-7--------------------------------------------|
D:5-7-5-7-----------------------------------------------|
A:-----------------4-4----------------------------------|
E:----------3-5-3-5-------------------------------------|

G:---6-7h9-7--------------------------------------6-7-976-7-976----------|
D:5-7------------------------------------------5-7-------------7-5-------|
A:--------------4-5h7-5-5-7-5-4-----4-457-4-5-7-------------------7-5----|
E:-----------3-5---------------5-3-5-5-------------------------------653-|

G:------------------------------------------------------|
D:------------------------------------------------------|
A:---4-------4-------4-5-7-5-7-5-4----------------------|
E:3-5-553-3-5-553-3-5-------------5---------------------|

G:---------------------6-67-7h99-76-9-76----------------|
D:-------------------57-7---------------75--------------|
A:---4-------4--4-457---------------------7-5-5---------|
E:3-5-553-3-5-55-----------------------------7-5-33-----|


LUIZ MANZANO (Brasil)
            

comments powered by Disqus
↑ Back to top | Nirvana Bass for Love Buzz. Lyrics for acoustic guitar and electric guitar. Tablatures and chords are parodies/interpretations of the original songs. You may use it for private study, scholarship, research or language learning purposes only