» » »

Nirvana, Love Buzz Tabs (ver.1)

Artists:  A B C D E F G H I J K L M N O P Q R S T U V W X Y Z # 

Love Buzz Tabs (ver.1)

Nirvana Tabs
 Rating:
4/5 (4 votes)
Love Buzz lessons Tabs too difficult? Try these video lessons and learn fast
                Tune down 1/2 step.

e-------------------------------------------------------------------------
B-------------------------------------------------------------------------
G-------------------------------------------------------------------------
D------------1h2p1-----------1h2p1----------1h2p1-----------1-2-----------      
A--2--0-2-3--------2--0-2-3--------2--0-2-3-------2--0-3-2------2---------
E-------------------------------------------------------------------------

e-------------------------------------------------------------------------
B-------------------------------------------------------------------------
G--4----4----4----4-------------------------------------------------------
D--4----4----4----4-------------------------------------------------------        
A--2----2----2----2-------------------------------------------------------
E-------------------------------------------------------------------------

e-------------------------------------------------------------------------
B--0---0-1--4h5p4-0---0-1--4h5p4-0----0-1--4h5p4-0------------------------
G----2--------------2---------------2-------------------------------------
D-------------------------------------------------------------------------        
A-------------------------------------------------------------------------
E-------------------------------------------------------------------------
            
Submit corrections

comments powered by Disqus
↑ Back to top | Nirvana Tabs for Love Buzz. Lyrics for acoustic guitar and electric guitar. Tablatures and chords are parodies/interpretations of the original songs. You may use it for private study, scholarship, research or language learning purposes only