» » »

Nirvana, Lounge Act Tabs (ver.5)

Artists:  A B C D E F G H I J K L M N O P Q R S T U V W X Y Z # 

Lounge Act Tabs (ver.5)

Nirvana Tabs
 Rating:
4/5 (4 votes)
Lounge Act lessons Tabs too difficult? Try these video lessons and learn fast
1
                Nirvana
Lounge act
Nevermind

this is loung act from the legendary Nevermind. i tabbed out the bass along with 
the guitar! have fun

G|--------------------------------------------------------------------------|
D|------4-------------------------------------------------------------------|
A|----5--------------------------5-4----------------------------------------|
E|-7------2---3-2-3/10--8-7-5-7------2--3-2-3/8-7-5-3-----------------------|
this part of the bass is played in the intro and through the verse

e|--------------------------------------------------------------------------|
B|--------------------------------------------------------------------------|
G|-4---4---4-4-4-0---5---5-5-5----------------------------------------------|
D|-4---4---4-4-4-0---5---5-5-5----------------------------------------------|
A|-2---2---2-2-2-----3---3-3-3----------------------------------------------|
E|---------------3----------------------------------------------------------|
this is the verse for guitar. it comes in after you play the bass part once for the intro.

G|--------------------------------------------------------------------------|
D|------4-------------------------------------------------------------------|
A|----5---------------------------------------------------------------------|
E|-7------2---3-2-3/7--5-5-5------------------------------------------------|
you play this section at the end of the verse before the chorus

e|---------------------------------------------------------------------------|
B|---------------------------------------------------------------------------|
G|-4---4---4-4-4-0---5---2-2-2-----------------------------------------------|
D|-4---4---4-4-4-0---5---2-2-2-----------------------------------------------|
A|-2---2---2-2-2-----3---0-0-0-----------------------------------------------|
E|---------------3-----------------------------------------------------------|
you play this at the end of the verse before the chorus

G|--------------------------------------------------------------------------|
D|--------5h7------7--------------------------7---5-------------------------|
A|------------7-5-----------5-7--7--------4-5---5---------------------------|
E|-0---5-------------3--5-7--------5--5-------------0-3b--------------------|
you repeat this patern twice for the chorus

e|--------------------------------------------------------------------------|
B|--------------3-----------------------------------------------------------|
G|-----2--2-2-2-2---0--0-0-0------------------------------------------------|
D|-2---2--2-2-2-0---0--0-0-0------------------------------------------------|
A|-2---0--0-0-0-------------------------------------------------------------|
E|-0----------------3--3-3-3------------------------------------------------|
this is the guitar pattern played over the bass in the chorus

(repeat verse again)

(repeat chorus again)

(repeat verse for an extra 2 bars at the begining before singing comes in w/distortion


the last chorus lasts a bit longer. the guitar is the same but the bass changed slightly:

G|--------------------------------------------------------------------------|
D|-----7----7-7---7---5----5h7----------------------------------------------|
A|-7------7-----5---5----5--------------------------------------------------|
E|--------------------------------------------------------------------------|

G|--------------------------------------------------------------------------|
D|-----7----7-7---7---5-----------------------------------------------------|
A|-7------7-----5---5-------------------------------------------------------|
E|-----------------------3-5-7----------------------------------------------|

G|--------------------------------------------------------------------------|
D|-------7-----7-7---7---5----5h7-------------------------------------------|
A|-7---7----7-----5---5-----5-----------------------------------------------|
E|---7----------------------------------------------------------------------|

G|--------------------------------------------------------------------------|
D|-----7----7-7---7---5-----------------------------------------------------|
A|-7------7-----5---5-------------------------------------------------------|
E|-----------------------3-5-7----------------------------------------------|
play chorus normally, but after you play this on bass


at the end of each chorus you play this:
G|--------------------------------------------------------------------------|
D|---------------------------------7-7-7-7-7-7-6-6-6-5/9--------------------|
A|-------------------------------0------------------------------------------|
E|-5---5--5-5-5-5-4-4-4-3--3-3-3--------------------------------------------|

e|--------------------------------------------------------------------------|
B|--------------------------------------------------------------------------|
G|--------------------------------------------------------------------------|
D|-7--------------6-----5----2---7-------------6-----5----2-----------------|
A|-7--------------6-----5----2---7-------------6-----5----2-----------------|
E|-5--------------4-----3----0---5-------------4-----3----0-----------------|

at the end of the last chorus, you play this part twice.


have fun learning this awesome song!
            
Submit corrections

comments powered by Disqus
↑ Back to top | Nirvana Tabs for Lounge Act. Lyrics for acoustic guitar and electric guitar. 1 Tablatures and chords are parodies/interpretations of the original songs. You may use it for private study, scholarship, research or language learning purposes only