» » »

Nirvana, Lounge Act Bass tabs (ver.2)

Artists:  A B C D E F G H I J K L M N O P Q R S T U V W X Y Z # 

Lounge Act Bass tabs (ver.2)

Nirvana Tabs
Rating:
0/5 (0 votes)
Lounge Act lessons Tabs too difficult? Try these video lessons and learn fast
                #

    I saw the Lounge Act bass tab here on the guitar archive,
when I saw how screwed up it was I had to send this correction
in. Here you go.

bass line:

G|-----------------------------------------------|
D|-------4---------------------------------------|
A|-----5-----------5-3-2-0-2-5-4---------3-2-0---|
E|-5/7-----2-3-2-3---------------2-3-2-3-------3-|


bass line:

-------------|-------|-----------|----------|-------|------------|-----------
--------5----|-------|-----------|----------|-------|------------|.----------
------6------|-------|---6-5-----|----6-5---|-------|---6-5------|.----------
---/8------4-|-4-3-4-|-4-----8-6-|--8-----4-|-4-3-4-|-4-----8-6--|-----------

chorus:

goes  e-a-d-g.. the thing at the end is a:
-5-5-5-5-5-4-4-4-3-3-3-3-|:
'das it!


Thanks to Mike Maronna for help in figuring out most of it 
--Chris Murray
            

comments powered by Disqus
↑ Back to top | Nirvana Bass for Lounge Act. Lyrics for acoustic guitar and electric guitar. Tablatures and chords are parodies/interpretations of the original songs. You may use it for private study, scholarship, research or language learning purposes only