» » »

Nirvana, Lithium Tabs (ver.7)

Artists:  A B C D E F G H I J K L M N O P Q R S T U V W X Y Z # 

Lithium Tabs (ver.7)

Nirvana Tabs
 Rating:
4/5 (4 votes)
Lithium lessons Tabs too difficult? Try these video lessons and learn fast
1
                Nirvana,Lithium.
  
intro 1
------------------------------------------------------
------------------------------------------------------
------------------6-----------------------------------
------------------6---------7-------------------------
-2-------6-----4----------7----0----------------------
-0--0--4----0--------0--5-----------------------------

this is the opening bit. theres some muting in there somwhere but its alot easier for beginers to learn without it.

intro part 2/main riff part 2

------------------------------------------------------
------------------------------------------------------
--5--5--7--7--7--7--4--4--7--7--7--7------------------
--5--5--7--7--7--7--4--4--7--7--7--7------------------
--3--3--5--5--5--5--2--2--5--5--5--5------------------
------------------------------------------------------
the first time kurt plays this he plays it on the bottom e as u hear its much lower the first time.

main riff part 1

------------------------------------------------------
------------------------------------------------------
--------------6--6------------------------------------
--2--2--6--6--6--6--7--7--7--7------------------------
--2--2--6--6--4--4--7--7--7--7------------------------
--0--0--4--4--------5--5--5--5------------------------
as you get 2 the main riff crank up distortion near the end of the intro part 2 then crank into this it sounds really cool!! after this part is done through once rip into second part straight away.

chorus riff
------------------------------------------------------
------------------------------------------------------
-2--2--6--6--6--2--2--6--6--6--6--6-------------------
-2--2--6--6--6--2--2--6--6--6--6--6-------------------
-0--0--4--4--4--0--0--4--4--4--4--4-------------------
this is the last bit and its very easy
there u go........enjoy

litium
intro 1   these are played several times 1 after      
intro 2   the other
main riff 1  again palayed several times 1 after the
main riff 2  other
intro 1
intro 2
main riff 1
main riff 2
chorus      played a few times
intro 1   its played really quietly hear so you can 
intro 2   only really hear the base line
main riff 1
main riff 2
chorus       

that raps it up. there shouldnt be a mistake hear but if there is it should be easy to correct. 
 
            
Submit corrections

comments powered by Disqus
↑ Back to top | Nirvana Tabs for Lithium. Lyrics for acoustic guitar and electric guitar. 1 Tablatures and chords are parodies/interpretations of the original songs. You may use it for private study, scholarship, research or language learning purposes only