» » »

Lithium Bass tabs (ver.5)

Artists:  A B C D E F G H I J K L M N O P Q R S T U V W X Y Z # 

Lithium Bass tabs (ver.5)

Nirvana
Rating:
0/5 (0 votes)

Hard to play? Try these video lessons and learn fast.
                Verse 1
F|----------------------------------------7-----|
C|---------------7-0---4-5-5-7-7\---------------|
G|-7--76-64-4-0-----7-------------2-2-/5---5-5--|
D|----------------------------------------------| x4

Pre-Chorus 1:

F|---------------------|
C|---------------------|
G|-5555555555555555555-|
D|---------------------|

Chorus 1
F|-------------------------------------------------------|
C|----------------------7-0-/5-5-5-7-7-7\--------0-0-0-0-|
G|------------4-4---0-0------------------2-2-2-2/--------|
D|-0-0---4-4---------------------------------------------| x3

Verse 2
F|----------------------------------------7-----|
C|---------------7-0---4-5-5-7-7\---------------|
G|-7--76-64-4-0-----7-------------2-2-/5----5-5-| 
D|----------------------------------------------| x4

Pre-Chorus 2:

F|---------------------|
C|------4---------7----|
G|-2-2---2---5-5---5---|
D|---------------------|

Chorus 2
F|-------------------------------------------------------|
C|----------------------7-0-/5-5-5-7-7-7\--------0-0-0-0-|
G|------------4-4---0-0------------------2-2-2-2/--------|
D|-0-0---4-4---------------------------------------------| x3

Bridge 1
F|--------------------------|---------------------------------|
C|------------------------5-|-7-7-7-5---5---5-----------------|
G|-0-0-0-3-3-3--0-0-3-5-7---|---------7---7---7--6-5-0-3-0-3--|
D|--------------------------|---------------------------------| x4

Outro 1
F|--------------------------------|
C|--------------------------------|
G|-5-5-5-5-5-5-5\2-2-2-2-2--------|
D|-------------------------0-3^-0-|

Verse 3
F|----------------------------------------------|
C|-------------------/5-5-7-7\------------------|
G|-7--76-64-4-0-----------------2-2-/5555555----|
D|----------------------------------------------| x4

Chorus 3
F|-------------------------------------------------------|
C|----------------------7-0-/5-5-5-7-7-7\--------0-0-0-0-|
G|------------4-4---0-0------------------2-2-2-2/--------|
D|-0-0---4-4---------------------------------------------| x3

Bridge 2
F|--------------------------|---------------------------------|
C|------------------------5-|-7-7-7-5---5---5-----------------|
G|-0-0-0-3-3-3--0-0-3-5-7---|---------7---7---7--6-5-0-3-0-3--|
D|--------------------------|---------------------------------| x4

Outro/Ending
F|--------------------------------|
C|--------------------------------|
G|-5-5-5-5-5-5-5\2-2-2-2-2--------|
D|-------------------------0-3^-0-|
            
Hard to play? Try these video lessons and learn fast. | Correct




comments powered by Disqus
↑ Back to top | Tablatures and chords are parodies/interpretations of the original songs. You may use it for private study, scholarship, research or language learning purposes only