» » »

Nirvana, Lithium Tabs (ver.6)

Artists:  A B C D E F G H I J K L M N O P Q R S T U V W X Y Z # 

Lithium Tabs (ver.6)

Nirvana Tabs
 Rating:
4/5 (4 votes)
Lithium lessons Tabs too difficult? Try these video lessons and learn fast
1
                                                    Lithium                                     

                                                                         Nirvana
Kurt Kobain -Guitar Mute-
Track four has one track muted with the whole guitar part for ease of reading

 
E||------|------------------------|------------------------|
B||------|------------------------|------------------------|
G||------|------------------1-----|-------6----------2-----|
D||------|-------2----------------|------------------------|
A||------|------------------------|--4-------4--0-------0--|
E||------|--0-------0--4-------4--|------------------------|

                                                                           
------------------------|------------------------|------------------------|
------------------------|------------------------|------------------------|
------------------------|------------------------|------------------------|
----------------0--0----|----------------0--0----|-------2----------6-----|
--3----3--3--3----------|--2----2--2--2----------|-------2----------6-----|
------------------------|------------------------|--0-------0--4-------4--|

                                                                           
------------------------|------------------------|------------------------|
------------------------|------------------------|------------------------|
-------6----------2-----|-------5-----------7----|-------4-----------7----|
-------4----------2-----|-------5-----------7----|-------4-----------7----|
--4-------4--0-------0--|--3----3--3--3--5--5----|--2----2--2--2--5--5----|
------------------------|------------------------|------------------------|

                                                                           
------------------------|------------------------|------------------------|
------------------------|------------------------|------------------------|
------------------------|-------6----------2-----|-------5-----------7----|
-------2----------6-----|-------4----------2-----|-------5--------0--7----|
-------2----------6-----|--4-------4--0-------0--|--3----3--3--3-----5----|
--0-------0--4-------4--|------------------------|------------------------|

                                                                           
------------------------|------------------------|------------------------|
------------------------|------------------------|------------------------|
-------4-----------7----|------------------------|-------6----------2-----|
-------4-----------7----|-------2----------6-----|-------4----------2-----|
--2----2--2--2--5--5----|-------2----------6-----|--4-------4--0-------0--|
------------------------|--0-------0--4-------4--|------------------------|

                                                                           
------------------------|------------------------|------------------------|
------------------------|------------------------|------------------------|
-------5-----------7----|-------4-----------7----|------------------------|
-------5-----------7----|-------4-----------7----|-------2----------6-----|
--3----3--3--3--5--5----|--2----2--2--2--5--5----|-------2----------6-----|
------------------------|------------------------|--0-------0--4-------4--|

                                                                       
------------------------|--------------------------|------------------|
------------------------|--------------------------|------------------|
-------6----------2-----|--5--5--5--5-5-5--7--7----|------------------|
-------4----------2-----|--5--5--5--5-5-5--7--7----|------------------|
--4-------4--0-------0--|--3--3--3--3-3-3--5--5----|------------------|
------------------------|--------------------------|------------------|
                                                                           
                                                                          
------------------------|------------------------|------------------------|
------------------------|------------------------|------------------------|
------------------------|-------6----------2-----|-------5-----------7----|
-------2----------6-----|-------4----------2-----|-------5-----------7----|
-------2----------6-----|--4-------4--0-------0--|--3----3--3--3--5--5----|
--0-------0--4-------4--|------------------------|------------------------|


                                                                           
------------------------|------------------------|------------------------|
------------------------|------------------------|------------------------|
-------4-----------7----|------------------------|-------6----------2-----|
-------4-----------7----|-------2----------6-----|-------4----------2-----|
--2----2--2--2--5--5----|-------2----------6-----|--4-------4--0-------0--|
------------------------|--0-------0--4-------4--|------------------------|

                                                                           
------------------------|------------------------|------------------------|
------------------------|------------------------|------------------------|
-------5-----------7----|-------4-----------7----|------------------------|
-------5-----------7----|-------4-----------7----|-------2----------6-----|
--3----3--3--3--5--5----|--2----2--2--2--5--5----|-------2----------6-----|
------------------------|------------------------|--0-------0--4-------4--|

                                                                          
------------------------|------------------------|------------------------|
------------------------|------------------------|------------------------|
-------6----------2-----|-------5-----------7----|-------4-----------7----|
-------4----------2-----|-------5-----------7----|-------4-----------7----|
--4-------4--0-------0--|--3----3--3--3--5--5----|--2----2--2--2--5--5----|
------------------------|------------------------|------------------------|

                                                                           
------------------------|------------------------|------------------------|
------------------------|------------------------|------------------------|
------------------------|-------6----------2-----|-------5-----------7----|
-------2----------6-----|-------4----------2-----|-------5-----------7----|
-------2----------6-----|--4-------4--0-------0--|--3----3--3--3--5--5----|
--0-------0--4-------4--|------------------------|------------------------|

                                                                           
------------------------|------------------------|------------------------|
------------------------|------------------------|------------------------|
-------4-----------7----|------------------------|-------6----------2-----|
-------4-----------7----|-------2----------6-----|-------4----------2-----|
--2----2--2--2--5--5----|-------2----------6-----|--4-------4--0-------0--|
------------------------|--0-------0--4-------4--|------------------------|

                                                                 
--------------------------|------------------|------------------|
--------------------------|------------------|------------------|
--5--5--5--5-5-5--7--7----|------------------|------------------|
--5--5--5--5-5-5--7--7----|------------------|------------------|
--3--3--3--3-3-3--5--5----|------------------|------------------|
--------------------------|------------------|------------------|
            
Submit corrections

comments powered by Disqus
↑ Back to top | Nirvana Tabs for Lithium. Lyrics for acoustic guitar and electric guitar. 1 Tablatures and chords are parodies/interpretations of the original songs. You may use it for private study, scholarship, research or language learning purposes only