» » »

Lake Of Fire Bass tabs (ver.5)

Artists:  A B C D E F G H I J K L M N O P Q R S T U V W X Y Z # 

Lake Of Fire Bass tabs (ver.5)

Nirvana
Rating:
0/5 (0 votes)

Hard to play? Try these video lessons and learn fast.
                -------------------------------------------------------------------------------
			     LAKE OF FIRE - Nirvana
-------------------------------------------------------------------------------
Lake Of Fire
Nirvana
MTV Unplugged in New York


Written down By : Etienne420
Tuning: EADG

Learn this song on a guitar pro file, thought it would be useful to write it in this 
cuz I play it really differently than other versions


COMPLETE SONG ORDER :
Verse x2
Chorus x1
Verse x1
Chorus x1
Pre Solo x1
Solo x1


_________________________________VERSE________________________________________

G|---------------3--|---------5-5-3-53--|---------------3-5-5--5-------------|
D|--5-5--5/3-3-3----|--5-5--5-----------|--5-5--5/3-3-3----------3-3/5-5-----|
A|------------------|-------------------|------------------------------------|
E|------------------|-------------------|------------------------------------|

G|-------------3------|-------------------3------|
D|--5-5--5/3-3---5----|--------5-5--5/3-3---5----|
A|--------------------|--------------------------|
E|--------------------|--------------------------|


_________________________________CHORUS_______________________________________

G|---------------------------------------------------|
D|---0---------0---------0--------------0------------|  quick rest
A|--------1---------0---------1----3-----------------|
E|---------------------------------------------------|

________________________________PRE SOLO______________________________________


G|---------------3--|---------5-5-3-53--|---------------3-5-5--5-------------|
D|--5-5--5/3-3-3----|--5-5--5-----------|--5-5--5/3-3-3----------3-3/5-5-----|
A|------------------|-------------------|------------------------------------|
E|------------------|-------------------|------------------------------------|


G|-----------------------------|
D|--5--5-5-5-5-5-3-3-3/5-5-----|   x4
A|-----------------------------|
E|-----------------------------|


__________________________________SOLO________________________________________

G|--3--0--------0--|---0--0--------0---|---3--0--------0--|---3--0--------0--|
D|--------3--3-----|---------3--3------|---------3--3-----|---------3--3-----|
A|-----------------|-------------------|------------------|------------------|
E|-----------------|-------------------|------------------|------------------|

G|--3--0--------0--|---0--0--------0---|---0-0--0-------0--|
D|--------3--3-----|---------3--3------|----------3--3-----|
A|-----------------|-------------------|-------------------|
E|-----------------|-------------------|-------------------|

G|--0-0--0-------------0------|
D|-----------3----3-----------|
A|----------------------------|
E|----------------------------|

===============================================================================
            
Hard to play? Try these video lessons and learn fast. | Correct




comments powered by Disqus
↑ Back to top | Tablatures and chords are parodies/interpretations of the original songs. You may use it for private study, scholarship, research or language learning purposes only