» » »

Nirvana, Jesus Dont Wants Me Accordion Tabs (ver.1)

Artists:  A B C D E F G H I J K L M N O P Q R S T U V W X Y Z # 

Jesus Dont Wants Me Accordion Tabs (ver.1)

Nirvana Tabs
Rating:
0/5 (0 votes)
Jesus Dont Wants Me Accordion lessons Tabs too difficult? Try these video lessons and learn fast
                JESUS DOESN'T WANT ME FOR A SUNBEAM WITH ACCORDION SOLO
                              Recorded by NIRVANA
                       (From the   UNPLUGGED IN NEW YORK)
                                (FROM: Guigsy)

"Accordion" intro"

|---------|-----------4-2---|-----------------|------------|
|---------|-5---5-(5)-----5-|-3---3-(3)-5-3-2-|--------3---|
|---------|-----------------|-----------------|-2----------|
|---------|-----------------|-----------------|------------|
|---------|-----------------|-----------------|------------|
|---------|-----------------|-----------------|------------|


|--------------|-----------4-2---|-----------------|-----------|
|--------------|-5---5-(5)-----5-|-3---3-(3)-5-3-2-|--------3--|
|-2---2-(2)----|-----------------|-----------------|-2---------|
|--------------|-----------------|-----------------|-----------|
|--------------|-----------------|-----------------|-----------|
|--------------|-----------------|-----------------|-----------|


|----------|
|----------|
|-2--------|
|----------|
|----------|
|----------|

Chorus "accordeon" solo:

|---------|-------------------|----------|-------------------|
|---------|-------------------|----------|-------------------|
|---------|-4---4-(4)-2-(2)-1-|-2--------|-4---4-(4)-2-(2)-1-|
|---------|-------------------|----------|-------------------|
|---------|-------------------|----------|-------------------|
|---------|-------------------|----------|-------------------|


|----------|-------------------|----------|-------------------|
|----------|-------------------|----------|-------------------|
|-2--------|-4---4-(4)-2-(2)-1-|-2--------|-4---4-(4)-2-(2)-1-|
|----------|-------------------|----------|-------------------|
|----------|-------------------|----------|-------------------|
|----------|-------------------|----------|-------------------|


|----------|-------------------|----------|-----------|
|----------|-------------------|----------|--------3--|
|-2--------|-4---4-(4)-2-(2)-1-|-2--------|-2---------|
|----------|-------------------|----------|-----------|
|----------|-------------------|----------|-----------|
|----------|-------------------|----------|-----------|

Ending "accordion" solo:

|--------------|-----------4-2---|----------2-4-|-5---5-(5)-----|
|--------------|-5---5-(5)-----5-|-3---3--3-----|------------3--|
|-2---2-(2)----|-----------------|--------------|---------------|
|--------------|-----------------|--------------|---------------|
|--------------|-----------------|--------------|---------------|
|--------------|-----------------|--------------|---------------|


|----------------*|
|-(3)------------*|
|------2--(2)----*|
|----------------*|
|----------------*|
|----------------*|


Well.This is it.
I hope You´ll like it.I know it may not be able sound very well.
But if You have a better version, please send me it.
Please write me if You will have any comments.
(Excuse my english)
            
Submit corrections

comments powered by Disqus
↑ Back to top | Nirvana Tabs for Jesus Dont Wants Me Accordion. Lyrics for acoustic guitar and electric guitar. Tablatures and chords are parodies/interpretations of the original songs. You may use it for private study, scholarship, research or language learning purposes only