>
 >
Jesus Dont Want Me As A Sunbeam

Jesus Dont Want Me As A Sunbeam Guitar Tabs

Nirvana - Jesus Dont Want Me As A Sunbeam chords, tabs, tablatures, lyrics

Guitar lessons | Add/correct | Request | Top 50 tabs Artists:  A B C D E F G H I J K L M N O P Q R S T U V W X Y Z 0-9

Jesus Dont Want Me As A Sunbeam Guitar Tabs – Nirvana

CD, Sheet music, Poster

Do you like Jesus Dont Want Me As A Sunbeam? Share with your friends now
Tabs
Jesus Doesn't Want Me As A Sunbeam
Tune Down 1/2 a step 
intro
e--0---0--0--0--0--0---0---0--0--0-------------------------------------------
b--0---0--0--0--0--3---3---3--3--0--------2--2--3--2-----2---2--3--0---------
g--1---1--1--1--0--2---2---2--2--0-----2-----2--2--2-----2---2--2--0---------
d--2---------2--0--0---0------0--0--2--------2--2--2-----2---2--2--0---------
a--2---------2--0----------------0--0-----------------0----------------------
e--0---------0---------------------------------------------------------------       
e--------------------0--0---0--0---------------------------------------------
b-----0---------0----3--3---3--0--2---2--------2---2-------------------------
g-----1---------1----2--2---2-----2------2--2--2---2--2--2-------------------
d-----2--------------0--0---0-----2-------------------------2--0-------------
a--2------------------------------0------------------------------------------
e--0-------0-----------------------------------------------------------------
 verse
e----------------------------------------------------------------------------
b--------------------------3---3----------------------2----------------------
g--------------------2--2--2---2----0------2----2--2--2-------2--------2-----
d--------------------0--0--------0-----2-----2--------------2----------2-----
a--------2-------0---------------------0-----------------0-------0--0----0---
e--0---0---0--0--------------------------------------------------------------
e----------------------------------------------------------------------------
b------------------3-----3-------------------------3--2----------------------
g------------------2-----2---2---0--------2--------2--2----2--------2--------
d------------------0--0--------0--------2-------2-----2----2--------2--------
a---------------0--------------------0-------0-----------0----0--0-----0-----
e  0   0  0  0
e----------------------------------------------------------------------------
b----------------------------3--------------------2--------------2-----------
g----------------------2--2--2-------2------------2-----2--------2------2----
d-------------------0--0-------0--0--0--0--2---2--------2--2--2---------2----
a----------------2----------------------0--0---------0-----0-------0--0---0--
e  0  0   0  0
e----------------------------------------------------------------------------
b--------------------------3------------------2--------3^2--2-----------2--0-  
g--------------------2-----2---2---0----------2--------2----2--2--2--2--2--0-  
d----------------0------0--------0-----2---2--------2-------2--2--2--2--2--0-  
a-------2------------------------------0---------0-------------0--0--0--0----  
e--0--0----0--0--------------------------------------------------------------
 chorus
e--0---0--0---0--0--0--0---0--0---0--0---------------------------------------
b--0---0--0---0--0--0--3---3--3---3--3--0------------------------------------
g--x---x--x---x--x--0--2---2--2---2--2--0------------------------------------
d--2---2--2---2--2--0--0---0--0---0--0--0------------------------------------
a--2---2--2---2--2----------------------0------------------------------------
e--0---0--0---0--0-----------------------------------------------------------  
 play that 3 times, then
e--0---0--0---0--0---0---0--0---0--0-----------------------------------------
b--2---2--2---2--3---2---2--2---2--2--0--------------------------------------
g--2---2--2---2--2---2---2--2---2--2--0--------------------------------------
d--2---2--2---2--2---2---2--2---2--2--0--------------------------------------
a--0---0--0---0--0---0---0--0---0--0--0--------------------------------------
e----------------------------------------------------------------------------





Comments


Popular Nirvana tabs & chords
Aneurysm 2 Bass Tabs
Moist Vagina Bass Tabs
About A Girl 1 Tabs
Been A Son Tabs
D-7 Tabs
Heart - Shaped Box 1 Tabs
In Bloom 4 Tabs
Jesus Doesnt Want Me For A Sunbeam 2 Tabs
Scoff Tabs
Talk To Me Tabs


Song lyrics



↑ Back to top | Tablatures and chords are parodies/interpretations of the original songs. You may use it for private study, scholarship, research or language learning purposes only
© 2014 AZChords.com Contact us | Privacy policy | DMCA | Add/correct tabs | Request tabs | Top 50 tabs