» » »

Nirvana, Jesus Doesnt Want Me For A Sunbeam Tabs (ver.5)

Artists:  A B C D E F G H I J K L M N O P Q R S T U V W X Y Z # 

Jesus Doesnt Want Me For A Sunbeam Tabs (ver.5)

Nirvana Tabs
Rating:
0/5 (0 votes)
Hard to play? Try these video lessons and learn fast.
                (Intro)
E     022100
D     x00232
A     x02220
Asus4 x02230


Intro

e|-0--0--4--2--0-|-------0-------|----------|----------|
B|---------------|-3--3-----3--2-|-------3--|----------|
G|---------------|---------------|-2--2-----|-2--2--2--|
D|---------------|---------------|----------|----------|   (x2)
A|---------------|---------------|----------|----------|
E|---------------|---------------|----------|----------|
   E               D               A   Asus4  A 
 

E             D             A      Asus4 A
Jesus doesn't want me for a sunbeam
      E            D               A    Asus4 A
Cause sunbeams are never made like me
E                  D                A           Asus4  A 
Don't expect me to cry, for all the reasons you had to die
E          D                A   Asus4 A
Don't ever ask your love of me 


E                  D    E                  D
Don't expect me to cry, don't expect me to lie
E                  D       A    Asus4 A
Don't expect me to die for thee



[Repeat Verse and Chorus]

[Repeat Intro]

[Repeat Chorus]

[Repeat Verse]


E                  D    E                  D    E                  D
Don't expect me to cry, don't expect me to lie, don't expect me to die
E                  D    E                  D
Don't expect me to cry, don't expect me to lie
E                  D       A    Asus4 A
Don't expect me to die for thee



e|-0-0-4-2-0-|-----0-----|-------|---------|-0-0-4-2-0-|-----0----|-5-5---|------|
B|-----------|-3-3---3-2-|-----3-|---------|-----------|-3-3---3-2|-----3-|------|
G|-----------|-----------|-2-2---|-2--2--2-|-----------|----------|-------|-2----|
D|-----------|-----------|-------|---------|-----------|----------|-------|------|
A|-----------|-----------|-------|---------|-----------|----------|-------|------|
E|-----------|-----------|-------|---------|-----------|----------|-------|------|
   E           D           A                 E           D          A
            

comments powered by Disqus
↑ Back to top | Nirvana Tabs for Jesus Doesnt Want Me For A Sunbeam. Lyrics for acoustic guitar and electric guitar. Tablatures and chords are parodies/interpretations of the original songs. You may use it for private study, scholarship, research or language learning purposes only