» » »

Jealousy Tabs (ver.1)

Artists:  A B C D E F G H I J K L M N O P Q R S T U V W X Y Z # 

Jealousy Tabs (ver.1)

Nirvana
Rating:
0/5 (0 votes)

Tabs too difficult? Try these video lessons and learn fast.
                Nirvana
recorded at the Hollywood REock festival ‘93
Standard tuning


|-------------------------------------------------------------|
|-------------------------------------------------------------|
|-5---5----6-6-6-5---5----6-6-6-5---5----6-6-6-5---5----6-6-6-|
|-5---5----6-6-6-5---5----6-6-6-5---5----6-6-6-5---5----6-6-6-|
|-3---3----4-4-4-3---3----4-4-4-3---3----4-4-4-3---3----4-4-4-|
|-4---4----4-4-4-4---4----4-4-4-4---4----4-4-4-4---4----4-4-4-|
         
|-------------------------------------------------------------|
|-------------------------------------------------------------|
|-5---5----6-6-6-5---5----6-6-6-5---5----6-6-6-5---5----6-6-6-|
|-5---5----6-6-6-5---5----6-6-6-5---5----6-6-6-5---5----6-6-6-|
|-3---3----4-4-4-3---3----4-4-4-3---3----4-4-4-3---3----4-4-4-|
|-4---4----4-4-4-4---4----4-4-4-4---4----4-4-4-4---4----4-4-4-|
          ‘I’m so jealous’              ‘I never ever get jealous’

|-------------------------------------------------------------|
|-------------------------------------------------------------|
|-5---5----6-6-6-5---5----6-6-6-5---5----6-6-6-5---5----6-6-6-|
|-5---5----6-6-6-5---5----6-6-6-5---5----6-6-6-5---5----6-6-6-|
|-3---3----4-4-4-3---3----4-4-4-3---3----4-4-4-3---3----4-4-4-|
|-4---4----4-4-4-4---4----4-4-4-4---4----4-4-4-4---4----4-4-4-|

|-------------------------------------------------------------|
|-------------------------------------------------------------|
|-5---5----6-6-6-5---5----6-6-6-5---5----6-6-6-5---5----6-6-6-|
|-5---5----6-6-6-5---5----6-6-6-5---5----6-6-6-5---5----6-6-6-|
|-3---3----4-4-4-3---3----4-4-4-3---3----4-4-4-3---3----4-4-4-|
|-4---4----4-4-4-4---4----4-4-4-4---4----4-4-4-4---4----4-4-4-|

|-------------------------------------------------------------|
|-------------------------------------------------------------|
|-------------------------------------------------------------|
|-------------------------------------------------------------|
|-------------------------------------------------------------|
|-4---4~-let-ring---------------------------------------------|

~That’s the entire song. Easy, huh?
            
Tabs too difficult? Try these video lessons and learn fast.




comments powered by Disqus
↑ Back to top | Tablatures and chords are parodies/interpretations of the original songs. You may use it for private study, scholarship, research or language learning purposes only