» » »

Nirvana, In Bloom Tabs (ver.4)

Artists:  A B C D E F G H I J K L M N O P Q R S T U V W X Y Z # 

In Bloom Tabs (ver.4)

Nirvana Tabs
Rating:
0/5 (0 votes)
In Bloom lessons Tabs too difficult? Try these video lessons and learn fast
                In bloom Solo


This is about 90% right but theres still a few bits missing





e----------------|-------------------------|
B----------------|-------------------------|
G-8bend alot-----|release bend slowly-6-6b-|
D----------------|-------------------------|
A----------------|-------------------------|
E----------------|-------------------------|

e--------------------------|---------------------|
B--------------------------|---------------------|
G-6----6-8-6-8b---8----6-8b|-8---6-8----6-8b-6-8-|
D------------------6-8-----|---------------------|
A--------------------------|---------------------|
E--------------------------|---------------------|

e-------------------------|---------------------|
B-------------8--8-9-8-9b-|-9-11-11b (hold bend)| 
G-10b----10-10-10---------|---------------------|
D-------------------------|---------------------|
A-------------------------|---------------------|
E-------------------------|---------------------|

e---------------------|---------------------------
B-release bend-\----8-|--8--8-7-7-6-6-5-5-4-4-3---
G---------------6--6--|-6--6----------------------
D---------------------|---------------------------
A---------------------|---------------------------
E---------------------|---------------------------

\ = slide
            

comments powered by Disqus
↑ Back to top | Nirvana Tabs for In Bloom. Lyrics for acoustic guitar and electric guitar. Tablatures and chords are parodies/interpretations of the original songs. You may use it for private study, scholarship, research or language learning purposes only