» » »

In Bloom Tabs (ver.8)

Artists:  A B C D E F G H I J K L M N O P Q R S T U V W X Y Z # 

In Bloom Tabs (ver.8)

Nirvana
Rating:
0/5 (0 votes)

Hard to play? Try these video lessons and learn fast.
                #------------------------------------------------------------------------------##

-Kyle Wilson 

This is my first tab so bear w/ me.IF someone else tabed the song this way, sorry i 
didnt see it...

Chords are musted a lot thru-out the song listen to be exact

Standard Tuning

intro/post verse
e|-------------------|
B|-------------------|
G|-------------------| <---Part One
D|-8-5--3-6----------|
A|-8-5--3-6----------|
E|-6-3--1-4----------| X2

e|---------------------------------------|
B|---------------------------------------|
G|----------------xx-88888-xx-4444-2222--| <---Part Two
D|-88888-xx-44444-xx-88888-xx-4444-2222--|
A|-88888-xx-44444-xx-66666-xx-2222-0000--|
E|-66666-xx-22222------------------------| X2
   v^v^v v^ v^v^v v^ v^v^v v^ v^v^ v^v^   

e|---------------------------------------| (this part is
B|---------------------------------------|  really played 
G|---------------------------------------|  by the bassist<---part three 
D|---------------------------------------|  i think but oh
A|-------------------66666----2222-0000--|  well)
E|-66666----22222------------------------| X2
   v^v^v    v^v^V    v^v^v    v^v^ v^v^

e|-----------------------------------------------------------------------------------------------|
B|-----------------------------------------------------------------------------------------------|
G|----------------------------------------------------------------------xx-55555-88----55555-88--| <---Chorus
D|-88888-xx-55555-xx-88888-xx-55555-xx-88888-xx-55555-xx-88888-xx-55555-xx-55555-88----55555-88--|
A|-88888-xx-55555-xx-88888-xx-55555-xx-88888-xx-55555-xx-88888-xx-55555-xx-33333-66----33333-66--|
E|-66666-xx-33333-xx-66666-xx-33333-xx-66666-xx-33333-xx-66666-xx-33333--------------------------|
   v^v^v v^ v^v^v v^ v^v^v v^ v^v^v v^ v^v^v v^ v^v^v v^ v^v^v v^ v^v^v    v^v^v v^    v^v^v v^

then go start back over, & thats pretty much it other than the solo
            
Hard to play? Try these video lessons and learn fast. | Correct




comments powered by Disqus
↑ Back to top | Tablatures and chords are parodies/interpretations of the original songs. You may use it for private study, scholarship, research or language learning purposes only