» » »

Nirvana, In Bloom Tabs (ver.3)

Artists:  A B C D E F G H I J K L M N O P Q R S T U V W X Y Z # 

In Bloom Tabs (ver.3)

Nirvana Tabs
Rating:
0/5 (0 votes)
In Bloom lessons Tabs too difficult? Try these video lessons and learn fast
                This is a very easy song to play. Hopefully you won’t have any problems playing it. This is also my first tab.


Intro
E------------------------------------------
B------------------------------------------
G------------------------------------------
D---8-8-8--5----3-3-3--6-------------------
A---8-8-8--5----3-3-3--6-------------------
E---6-6-6--3----1-1-1--4-------------------
Play this twice.

Pre Verse
E------------------------------------------
B------------------------------------------
G-----------------------------8-8-8-8-8--8-
D---8-8-8-8-8--8-4-4-4-4-4--4-8-8-8-8-8--8-
A---8-8-8-8-8--8-4-4-4-4-4--4-6-6-6-6-6--6-
E---6-6-6-6-6--6-2-2-2-2-2--2--------------

E------------------------------------------
B------------------------------------------
G------------------------------------------
D---9-9-9-9-7-7-7-7------------------------
A---9-9-9-9-7-7-7-7------------------------
E---7-7-7-7-5-5-5-5------------------------
You also play this twice through.

The verse has got no guitar it is just bass 
and drums.

Chorus
E------------------------------------------
B------------------------------------------
G------------------------------------------
D---8-8--8-5-5-5-5-5-5---------------------
A---8-8--8-5-5-5-5-5-5---------------------
E---6-6--6-3-3-3-3-3-3---------------------
Play this half four times...

E------------------------------------------
B------------------------------------------
G-----------8-8-8-8-8-8--------------------
D---10101010-8-8-8-8-8-8--------------------
A---10101010-6-6-6-6-6-6--------------------
E---8-8-8-8--------------------------------
...and this twice.

That is basically it and I’m sure you can work out the order of the song. The only bit I don’t know is the solo. Enjoy!
            

comments powered by Disqus
↑ Back to top | Nirvana Tabs for In Bloom. Lyrics for acoustic guitar and electric guitar. Tablatures and chords are parodies/interpretations of the original songs. You may use it for private study, scholarship, research or language learning purposes only