» » »

I Hate Myself And Want To Die Tabs (ver.3)

Artists:  A B C D E F G H I J K L M N O P Q R S T U V W X Y Z # 

I Hate Myself And Want To Die Tabs (ver.3)

Nirvana
Rating:
0/5 (0 votes)

Hard to play? Try these video lessons and learn fast.
                Nirvana
I hate myself and want to die
Written by Kurt Cobain
Tuning- drop-D

Riff one
||---------------------------------
||---------------------------------
||-4---4-----------4---4-----------
||-4---4---1-1-0-1-4---4---1-1-0-1-
||-2---2---1-1-0-1-2---2---1-1-0-1-
||---------1-1-0-1---------1-1-0-1-

Riff two
||---------------------------------
||---------------------------------
||---------------------------------
||-4---4---7-7-7-7-4---4---7-7-7-7-
||-4---4---7-7-7-7-4---4---7-7-7-7-
||-4---4---7-7-7-7-4---4---7-7-7-7-

Solo
||--------------------------------------------------
||--------------------------------------------------
||-4------------------------------------------------
||-4-----------3--2--1~~~~~~2-1---1-----------------
||-2--1-2-4-2-------------------4----7-6-4-2-1~~~~~~
||-----------------------------------7-6-4-2-1~~~~~~
vibrato              (      )                 (     )
            
Hard to play? Try these video lessons and learn fast. | Correct




comments powered by Disqus
↑ Back to top | Tablatures and chords are parodies/interpretations of the original songs. You may use it for private study, scholarship, research or language learning purposes only