» » »

Nirvana, Horrified Tabs (ver.3)

Artists:  A B C D E F G H I J K L M N O P Q R S T U V W X Y Z # 

Horrified Tabs (ver.3)

Nirvana Tabs
Rating:
0/5 (0 votes)
Hard to play? Try these video lessons and learn fast.
                -------------------------------------------------------------------------------
                             HORRIFIED-Nirvana
-------------------------------------------------------------------------------

Tuning: Standard

There's really 2 parts to this here's the first one which is more of the bass beat 
on the guitar.

All of this part is palm muted...

X8
e|--------------------------------------------------------------|
B|--------------------------------------------------------------|
G|3-3-3-----------3-3-3-----------3-3-3-----------3-3-3---------|
D|3-3-3--2-2-2-2--3-3-3--2-2-2-2--3-3-3--2-2-2-2--3-3-3--2-2-2-2|
A|1-1-1--2-2-2-2--1-1-1--2-2-2-2--1-1-1--2-2-2-2--1-1-1--2-2-2-2|
E|-------0-0-0-0---------0-0-0-0---------0-0-0-0---------0-0-0-0|
X2
e|--------------------------------|
B|--------------------------------|
G|3-3-3-3-3-3-3-3--6-6-6-6-6-6-6-6|
D|3-3-3-3-3-3-3-3--6-6-6-6-6-6-6-6|
A|1-1-1-1-1-1-1-1--4-4-4-4-4-4-4-4|
E|--------------------------------|
X8
e|----------------------------------|
B|----------------------------------|
G|6/-9-9-9-9-11-11\--6-6-6-6-6-6-6-6|
D|6/-9-9-9-9-11-11\--6-6-6-6-6-6-6-6|
A|4/-7-7-7-7--9--9\--4-4-4-4-4-4-4-4|
E|----------------------------------|

Now is the more higher played parts of the song...

X8
e|---------------|
B|7h-6-4/-6-6-6-6|
G|---------------|
D|---------------|
A|---------------|
E|---------------|
X2
e|-----------9-9-9-9-9-9-9-9|
B|7~--6~--4~----------------|
G|--------------------------|
D|--------------------------|
A|--------------------------|
E|--------------------------|
X8
e|9~/-----12~/-----14~\-----9~|
B|----------------------------|
G|----------------------------|
D|----------------------------|
A|----------------------------|
E|----------------------------|

Then near the end of the song he plays a little ditty that goes like this...

e|12----12------10----10-----8------10-----12-----12-|
B|--10----10------8-----8--------6------8----10----10|
G|---------------------------------------------------|
D|---------------------------------------------------|
A|---------------------------------------------------|
E|---------------------------------------------------|

whatever... Nirvana forever.

| /  slide up
| \  slide down
| h  hammer-on
| p  pull-off
| ~  vibrato
| +  harmonic
| x  Mute note
===============================================================================
            

comments powered by Disqus
↑ Back to top | Nirvana Tabs for Horrified. Lyrics for acoustic guitar and electric guitar. Tablatures and chords are parodies/interpretations of the original songs. You may use it for private study, scholarship, research or language learning purposes only