» » »

Nirvana, Horrified Tabs (ver.2)

Artists:  A B C D E F G H I J K L M N O P Q R S T U V W X Y Z # 

Horrified Tabs (ver.2)

Nirvana Tabs
Rating:
0/5 (0 votes)
Horrified lessons Tabs too difficult? Try these video lessons and learn fast
                s = slide
p = pull off
*tip: Don't be afraid to play this song alittle sloppy because it's a demo (and that's 
Kurt always does it)

Intro:
e-------------------------------------------|
B-------------------------------------------|
G---8p9-7-8s11------------------------------|
D-------------------------------------------|
A-------------------------------------------|
E-------------------------------------------|

play this a couple of times,then:

Verse:
e-------------------------------------------|
B-------------14-14-14----------------------|
G---13-13-13--------------------------------|
D-------------------------------------------|
A-------------------------------------------|
E-------------------------------------------|

then finally, the chorus:

Chorus
e-------------------------------------------|
B---14-14-14---11-11-11---------------------|
G-------------------------------------------|
D-------------------------------------------|
A-------------------------------------------|
E-------------------------------------------|

after that, repeat some of the parts, then you're done.

When I have a hand
When I have a hand
When I need undressed
I know that I've had
Comin' to her sin
When I know I've had
Lend a helpin' hand
And I'll help herself

When I ya
When I ya
When I ya
When I ya
When I ya
When I ya

When I know I'm there
When I smell her stare
I know no one breathe
Send my soul right there
Sell my soul right there
And I'll know I'll be
When I know I have
When I have a plan

When I ya
When I ya
When I ya
Tonight ya
Tonight ya
Tonight ya

**Hope this tab helps out and by the way...Nirvana frikken rocks!!
            

comments powered by Disqus
↑ Back to top | Nirvana Tabs for Horrified. Lyrics for acoustic guitar and electric guitar. Tablatures and chords are parodies/interpretations of the original songs. You may use it for private study, scholarship, research or language learning purposes only