» » »

Nirvana, Heart Shapped Box Tabs (ver.1)

Artists:  A B C D E F G H I J K L M N O P Q R S T U V W X Y Z # 

Heart Shapped Box Tabs (ver.1)

Nirvana Tabs
 Rating:
4/5 (4 votes)
Heart Shapped Box lessons Tabs too difficult? Try these video lessons and learn fast
                PROPS GO TO: Ziad 

PROPS GO TO: Kampy

Heart Shaped Box
Dropp D tuning Meaning you tune the low E string one step or note whatever down
This means you can play notes from chord D which you cant play in standard tuning
You can also play power chords using one finger....sick huh
this is my first tab and i am proud of it. enjoy and RIP Kurt Cobain
 
     A        F        D                A         F        D
e|--------------------------------------------------------------------------
B|--------------------------------------------------------------------------
G|-------2----------------------------------2-------------------------------
D|-----2---2------3---------0---0---------2---2------3----2/4-4---4-------0-
A|---0----------3---3-----0---0---0-----0----------3---3--3/5---5---5-3-3---
D|------------3--------0-------------------------3--------0/0---------------

     A       F       D
e|--------------------------------------------------------------------------
B|--------------------------------------------------------------------------
G|---2-2--4~------4~--------------------------------------------------------
D|---2-2-----3-3-----2/4-4---4-------0--------------------------------------
A|---0-0-----3-3-----3/5---5---5-3-3----------------------------------------
D|-----------3-3-----0/-----------------------------------------------------

     F           D                F           D
e|--------------------------------------------------------------------------
B|---------------------4~-0-4-0---------------------------------------------
G|---------------------4~-0-4-0---------------------------------------------
D|---3-3-3-3-3-3-0--0------------3-3-3-3-3-3--2/4-4---4-------0-------------
A|---3-3-3-3-3-3-0--0------------3-3-3-3-3-3--3/5---5---5-3-3---------------
D|---3-3-3-3-3-3-0--0------------3-3-3-3-3-3--0/----------------------------


Solo
                                                  Distorsion     Clean
                                                  first A chord     Second A chord
e|--------------------------------------------------------------------------
B|--------------------------------------------------------------------------
G|------9~----7~----5~-5-4-2-0-------9~----7~----5~-5-4-2-0-2---2-----------
D|---7-----5-----3----------------7-----5-----3-------------2---2-----------
A|----------------------------------------------------------0---0-----------
D|--------------------------------------------------------------------------
            
Submit corrections

comments powered by Disqus
↑ Back to top | Nirvana Tabs for Heart Shapped Box. Lyrics for acoustic guitar and electric guitar. Tablatures and chords are parodies/interpretations of the original songs. You may use it for private study, scholarship, research or language learning purposes only