» » »

Nirvana, Heart - Shaped Box Tabs (ver.7)

Artists:  A B C D E F G H I J K L M N O P Q R S T U V W X Y Z # 

Heart - Shaped Box Tabs (ver.7)

Nirvana Tabs
 Rating:
4/5 (4 votes)
Heart - Shaped Box lessons Tabs too difficult? Try these video lessons and learn fast
1
                
This is yet another song that people just can't seem to get the grasp of.
It's actually really, REALLY easy, if you tune your guitar properly. 
Drop all the strings 1/2 step to Eb tuning, then drop the low E string so
that it's tonality is Db.  Really easy.
I'm gonna assume that you are either familiar with the song or you own a
copy of it.

Tuning: Eb dropped to Db
Low to high: Db, Ab, Db, Gb, Bb, Eb

Intro/Verse: (clean channel)
Chrds: A5, F5, D5

Eb:-------------------------------------------------
Bb:-------------------------------------------------
Gb:---------2---------------------------------------
Db:------2-----2----------3-------------0-----0-----
Ab:---0----------------3-----3-------0-----0-----0--
Db:----------------3--------------0-----------------

Eb:------------------------------------------------------|
Bb:------------------------------------------------------|
Gb:---------2--------------------------------------------|
Db:------2-----2---------3---------/4--4-----4-----------|
Ab:---0---------------3-----3-------------0-----3--3--4--|
Db:----------------3------------0(let ring)--------------|
				!!

Going into the chorus stomp distortion at the !! symbols.

Chorus: (Heavy distortion)
Chrds: A5, F5, D5

Eb:--------------------------------------------------------|
Bb:---------4(b)---------4(b)-------------------------4(b)-|
Gb:---2--2-------------------------------------------------| repeat
Db:---2--2---------3--3--------0---/4--4-----4-------------| as 
Ab:---0--0---------3--3--------0----------0-----3--3-------| needed
Db:----------------3--3--------0---------------------------|
	    Hey!         Wait!     I got a new complaint!...etc.

Until...The Post-Chorus (let's call it that, sure!)

Eb:---------------------------------------|
Bb:--------------------------------4(b)---|repeat
Gb:---------------------------------------|as
Db:---3--3--3--3--3--3--3--3--0--0--------|needed
Ab:---3--3--3--3--3--3--3--3--0--0--------|
Db:---3--3--3--3--3--3--3--3--0--0--------|


Eb:-----------------------------------------------------|
Bb:-----------------------------------------------------|
Gb:-----------------------------------------------------|
Db:---3--3--3--3--3--3--3--3--0---/4--4-----4-----------|
Ab:---3--3--3--3--3--3--3--3--0----------0-----3--3--4--|
Db:---3--3--3--3--3--3--3--3--0-------------------------|
							!!

Solo: (w/distortion & effect ie: rotovibe, flanger, etc.)

Eb:-----------------------------------------------------|
Bb:----------9(b)-------7(b)----------5(b)--5--3--2--0--|repeat 2x
Gb:-----------------------------------------------------|
Db:---7--7--------5--5----------3--3--------------------|
Ab:-----------------------------------------------------|
Db:-----------------------------------------------------|

Eb:-----------------------------|
Bb:---0---------------------0---|
Gb:---2--(let chord ring)---2---|
Db:---2---------------------2---|
Ab:---0---------------------0---|
Db:-----------------------------|
			    !!
Hit dist. and effect off @ !!

Extro:
The extro is just the 1st 1/2 of Post-Chorus repeated 
until the 2nd 1/2, then slow down accordingly.

Progression:
Intro
Verse
Chorus & Post-Chorus
Verse
Chorus & Post-Chorus
Solo
Verse
Chorus & Post-Chorus
Extro

Chords:

A5=Eb:-(0)-	F5=Eb:--x-	D5=Eb:--x-
   Bb:--0--	   Bb:--x-	   Bb:--x-
   Gb:--2--	   Gb:--x-	   Gb:--2-
   Db:--2--	   Db:--3-	   Db:--0-
   Ab:--0--	   Ab:--3-	   Ab:--0-
   Db:--x--	   Db:--3-	   Db:--0-

Lyrics:

She eyes me like a pisces when I am weak
I've been locked inside your Heart-Shaped box for weeks
I've drawn into your magnet tar pit trap
I wish I could eat your cancer when you turn back

Hey!
Wait!
I've got a new complaint
Forever in debt to your priceless advice
Hate!
Haight!
I've got a new complaint
Forever in debt to your priceless advice
Hey!
Wait!
I've got a new complaint
Forever in debt to your priceless advice
Your advice...

Meat-eating orchids forgive no one just yet
Cut myself angel's hair and baby's breath
Broken hymen of your highness I'm left black
Throw down your umbilical noose so I can climb right back

Hey!
Wait!
I've got a new complaint
Forever in debt to your priceless advice
Hate!
Haight!
I've got a new complaint
Forever in debt to your priceless advice
Hey!
Wait!
I've got a new complaint
Forever in debt to your priceless advice
Your advice...

<solo>

She eyes me like a pisces when I am weak
I've been locked inside your Heart-Shaped box for weeks
I've drawn into your magnet tar pit trap
I wish I could eat your cancer when you turn back

Hey!
Wait!
I've got a new complaint
Forever in debt to your priceless advice
Hate!
Haight!
I've got a new complaint
Forever in debt to your priceless advice
Hey!
Wait!
I've got a new complaint
Forever in debt to your priceless advice
Your advice...Your advice...
Your advice...Your advice...
            
Submit corrections

comments powered by Disqus
↑ Back to top | Nirvana Tabs for Heart - Shaped Box. Lyrics for acoustic guitar and electric guitar. 1 Tablatures and chords are parodies/interpretations of the original songs. You may use it for private study, scholarship, research or language learning purposes only