» » »

Heart - Shaped Box Bass tabs (ver.6)

Artists:  A B C D E F G H I J K L M N O P Q R S T U V W X Y Z # 

Heart - Shaped Box Bass tabs (ver.6)

Nirvana
Rating:
0/5 (0 votes)

Hard to play? Try these video lessons and learn fast.
                This Is The Way I Play Heart-Shaped Box In My Band, It's Not Exact But It Sounds Good. Enjoy!

VERSE:                              x8 Then On 9th Time
G|----------------------------------||-------------------------------------|
D|----------------------------------||----------------------4-4-4-4--------|
A|----0-0-0-0-------4-4-4-4~---4----||----0-0-0-0---------4---------3-3-5--|
D|-----------3-3-3-3---------0---0--||------------3-3-3-3------------------|


CHORUS:					x6
G|----------------------------------------|
D|---------6b~-------2~----4-4-4-4--------|
A|----0-0----------------0---------3-3-5--|
D|--------------4-4-----------------------|

				     x2
G|-------------------------------------|
D|-------------------------------------|
A|-------------------------------------|
D|---3-3-3-3-3-3-3-3-0-0-0-0-0-0-0-0---|


VERSE:                              x7 Then On 8th Time
G|----------------------------------||-------------------------------------|
D|----------------------------------||---------------------4-4-4-4---------|
A|----0-0-0-0-------4-4-4-4~---4----||----0-0-0-0--------4---------3-3-5---|
D|-----------3-3-3-3---------0---0--||-----------3-3-3-3-------------------|


CHORUS:					x6
G|----------------------------------------|
D|---------6b~-------2~----4-4-4-4--------|
A|----0-0----------------0---------3-3-5--|
D|--------------4-4-----------------------|

				     x2
G|-------------------------------------|
D|-------------------------------------|
A|-------------------------------------|
D|---3-3-3-3-3-3-3-3-0-0-0-0-0-0-0-0---|


BRIDGE:
G|----------------------------------------|
D|---------6b~-------2~------3-2-1--------|
A|----0-0----------------0-0--------3p2---|
D|--------------4-4-----------------------|

G|------------------------------------------|
D|---------6b~-------2b~--------------------|
A|----0-0--------------------4---4---4------|
D|--------------4-4------0-0---0---0---0----|


VERSE:                              x9 Then On 10th Time
G|----------------------------------||--------------------------------------|
D|----------------------------------||----------------------4-4-4-4---------|
A|----0-0-0-0-------4-4-4-4~---4----||----0-0-0-0---------4---------3-3-5---|
D|-----------3-3-3-3---------0---0--||------------3-3-3-3-------------------|


CHORUS:					x6
G|----------------------------------------|
D|---------6b~-------2~----4-4-4-4--------|
A|----0-0----------------0---------3-3-5--|
D|--------------4-4-----------------------|

				                           x3 Then On The 4th
G|----------------------------------||-------------------------------------|
D|----------------------------------||----------------------4-4-4-4--------|
A|----------------------------------||--------------------4---------3-3~---|
D|-3-3-3-3-3-3-3-3-0-0-0-0-0-0-0-0--||----3-3-3-3-3-3-3-3------------------|
            
Hard to play? Try these video lessons and learn fast. | Correct




comments powered by Disqus
↑ Back to top | Tablatures and chords are parodies/interpretations of the original songs. You may use it for private study, scholarship, research or language learning purposes only