>
 >
Heart Shaped Box 5

Heart Shaped Box 5 Guitar Tabs

Nirvana - Heart Shaped Box 5 chords, tabs, tablatures, lyrics

Guitar lessons | Add/correct | Request | Top 50 tabs Artists:  A B C D E F G H I J K L M N O P Q R S T U V W X Y Z 0-9

Heart Shaped Box 5 Guitar Tabs – Nirvana

CD, Sheet music, Poster

Do you like Heart Shaped Box 5? Share with your friends now
Tabs
Gtr I, II (Db Ab Db Gb Bb Eb) - 'clean electric - drop D tuning down 1/2 step'
Gtr III, IV (Db Ab Db Gb Bb Eb) - 'Dist Electric - drop D tuning down 1/2 step'
Gtr V (Db Ab Db Gb Bb Eb) - 'clean electric with tremelo effect'

Intro
  Q=100
 4/4
  Gtr I
  E E E E E E E E   Q  E E +E  E E E   E E E E E E E E   E a E E E E E E E
|-----------------|------------------|-----------------|-------------------|
|-----------------|------------------|-----------------|-------------------|
|-----2-----------|------------------|-----2-----------|-----------------0-|
|---2---2-----3---|------0-(0)---0---|-2-2---2-----3---|---3h4-4---4---4-0-|
|-0---------3---3-|----0-------0---0-|-0---------3-----|---------0---3-3---|
|---------3-------|-0----------------|---------3-----3-|-0-----------------|
|
| Gtr II
| W                 W                  H       H         W
|-----------------|------------------|-----------------|-------------------|
|-----------------|------------------|-----------------|-------------------|
|-----------------|------------------|-----------------|-------------------|
|-----------------|------------------|-2---------------|-------------------|
|-----------------|------------------|-0-------3-------|-------------------|
|-----------------|------------------|---------3-------|-0-----------------|


   Verse 1, 2 & 3
    $ $$
    E E E E E E E E   Q  E E +E  E E E   E E Q  E E E E   E a E E E E E E E
||------------------|------------------|----------------|-------------------
||o-----2-----------|----------------0-|----------------|-------------------
||------2-----------|----------------0-|-----2----------|-------------------
||--2-2---------3---|------0-(0)---0---|-2-2--------3---|---3h4-4---4---4-0-
||o-0-----0---3-----|----0-------0-----|-0--------3-----|---------0---3-3-0-
||----------3-----3-|-0----------------|--------3-----3-|-0-----------------
|
|   Q   Q   H         W                  Q   Q  H         W
||------------------|------------------|----------------|-------------------
||o-----2-----------|------------------|-----2----------|-------------------
||--2---2-----------|------------------|-2---2----------|-------------------
||--2---------------|------------------|-2--------------|-------------------
||o-0---------------|------------------|-0--------------|-------------------
||----------3-------|-0----------------|--------3-------|-0-----------------


  E E E E E E E E   E E E E +E  E E S S
|-----------------|---------------------|
|-----2-----------|-----------------0h2-|
|-----2-----------|-----------------0h2-|
|---2---2-----3---|-------0-(0)---0-----|
|-0-----0---3-----|---0-0-------0-------|
|---------3-----3-|-0-------------------|
|
| E E Q   E E Q     W
|-----------------|---------------------|
|-----2-----------|---------------------|
|-----2-----------|---------------------|
|---2---------3---|---------------------|
|-0---------3-----|---------------------|
|---------3-------|-0-------------------|


                   1.
  E E E E E E E E   E a E E E E E E E
|-----------------|--------------------||
|-----2-----------|-------------------o||
|-----2-----------|--------------------||
|---2---------3---|---3h4-4---4-----0--||
|-0-----0---3-----|---------0---3-3-0-o||
|---------3-----3-|-0------------------||
|
| Q   Q   E E Q     E   E E E E E E E
|-----------------|--------------------||
|-----2-----------|-------------------o||
|-----2-----------|--------------------||
|-2---2-------3---|-----4-4-4-4-----0--||
|-0---0-----3-----|-------------3-3---o||
|---------3-------|-0------------------||


                              Chorus 1 & 3
  2.
                    To Coda
  Gtrs III, IV
  E a E E E E E E      S S     E E E   +E  E E E   +E    E E E E E E E   +E
|--------------------------||--------------------------|--------------------
|--------------------------||o-------------------------|--------------------
|--------------------------||--2-2-4b5-(4)-----4b5-(4)-|-------------4b5-(4)
|---3h4-4---4--------------||--2-2---------3-3---------|-0-4-4---4----------
|---------0---3-3b3.5==0-0-||o-0-0---------3-3---------|-0-0---0---3-------
|-0------------------------||--------------3-3---------|-0------------------


                           1.,2.
              To Dbl. Coda
  E E E   +E  E E E   +E    E E E E E E E   +E
|-------------------------|----------------------||
|-------------------------|---------------------o||
|-2-2-4b5-(4)-----4b5-(4)-|-------------4b5-(4)--||
|-2-2---------3-3---------|-0-4-4---4------------||
|-0-0---------3-3---------|-0-0---0---3---------o||
|-------------3-3---------|-0--------------------||


  3.
  E E E E E E a   +E  E   E E E E E E E E
|-----------------------|-------------------|
|-----------------------|-----1-------------|
|-------------4b5-(4)---|-----2---2-2-2-----|
|-0-4-4---4-------------|-3-3-3---3-3-3-----|
|-0-0---0---3---------0-|-3-3-----3-3-3-x/--|
|-0---------------------|-3-3---3-3-3-3-x/--|


                                                D.S. al Coda
  Q  E E +Q     +E  E   E E E E E E E S S   E E E E E E E E
|---------------------|-------------------|------------------||
|---------------------|-----1-------------|------------------||
|------4-(4)b5--(4)-0-|-----2---2---2-----|------------------||
|-4-------------------|-3-3-3---3---3-3-3-|---4-4-4-4-----0--||
|-0--0----------------|-3-3-3---3---3-3-3-|-----------3-3-0--||
|-0-------------------|-3-3-3-3-3-3-3-----|-0----------------||


   Chorus 2
    &
    E E E   +E  E E E   +E    E E E E E E E   +E
||--------------------------|---------------------|
||o-------------------------|---------------------|
||--2-2-4b5-(4)-----4b5-(4)-|-------------4b5-(4)-|
||--2-2---------3-3---------|-0-4-4---4-----------|
||o-0-0---------3-3---------|-0-0---0---3---------|
||--------------3-3---------|-0-------------------|


  E E E   +E  E E E   +E    E E E E E E E   +E    3x
|-------------------------|-----------------------||
|-------------------------|----------------------o||
|-2-2-4b5-(4)-----4b5-(4)-|-------------4b5-(4)---||
|-2-2---------3-3---------|-0-4-4---4-------------||
|-0-0---------3-3---------|-0-0---0---3----------o||
|-------------3-3---------|-0---------------------||


  E E E E E E E E   Q  E E Q     +E  E   E E E E E E E E   Q  E E E E E S S
|-----------------|--------------------|-----------------|------------------
|-----------------|--------------------|-----------------|------------------
|-----------------|------4-4b5---(4)-0-|-----------------|--------------0-0-
|-3-3-3-3-3-3-3-3-|-4----------------0-|-3-3-3-3-3-3-3-3-|-4--4-4-4---------
|-3-3-3-3-3-3-3-3-|-0--0---------------|-3-3-3-3-3-3-3-3-|-0----0---3-3-----
|-3-3-3-3-3-3-3-3-|-0--0-0-0---0--0--0-|-3-3-3-3-3-3-3-3-|-0----------------
                    Q  E E E   E  E  E


 Guitar Solo
  Gtr V
                                           |3|
  Q  E    +S  S Q  E   +E    Q  Q    +E  E E Q
|--------------------------|-------------------|
|----8b10r(8)p7----6b8r(6)-|----5b6r=(5)-3-1-0-|
|--------------------------|-------------------|
|-7-------------5----------|-3-----------------|
|--------------------------|-0-----------------|
|--------------------------|-------------------|


                                           |3|
  Q  E    +S  S Q  E   +E    Q  Q    +E  E E Q
|--------------------------|-------------------|
|----8b10r(8)p7----6b8r(6)-|----5b6r=(5)-3-1-0-|
|--------------------------|-------------------|
|-7-------------5----------|-3-----------------|
|--------------------------|-0-----------------|
|--------------------------|-------------------|


                            D.S.S. al Dbl. Coda
                                      >
  W          +W           W          +W
|----------|------------|----------|------------||
|----------|------------|-2--------|-(2)--------||
|----------|------------|-2--------|-(2)--------||
|-2--------|-(2)--------|-2--------|-(2)--------||
|-0--------|-(0)--------|-0--------|-(0)--------||
|----------|------------|----------|------------||


 Chorus 3
  &&
  E E E E E E E   +E    Q  E E E E E E
|---------------------|-----------------|
|---------------------|-----------------|
|-------------4b5-(4)-|----2------------|
|-0-4-4---4-----------|-3--3-3-3-3-3-3/-|
|-0-0---0---3---------|-3--3-3-3-3-3-3/-|
|-0-------------------|-3--3------------|


  Q  E E    +Q    +S  +S  E   Q  E E E E E E
|---------------------------|------------------|
|---------------------------|------------------|
|------4b5==(4)---(4)r(4)p0-|----2-2-------0/--|
|-3-------------0--0------0-|-3--3-3-3-3-3-0/--|
|-0--0-0-----0--0--0------0-|-3--3-3-3-3-3-0/--|
|-0--0-0-----0--------------|-3--3-3-3-3-3-----|
  Q  E E     E  E  E      E


  Q  E E    +Q    +S  +S  E   Q  E E E E E E    Q  E E    +Q    +S  +S  E
|---------------------------|-----------------|---------------------------|
|---------------------------|-----------------|---------------------------|
|------4b5==(4)---(4)r(4)p0-|----2-2-------0/-|------4b5==(4)---(4)r(4)p0-|
|-3-------------0--0------0-|-3--3-3-3-3-3-0/-|-3-------------0--0------0-|
|-0--0-0-----0--0--0------0-|-3--3-3-3-3-3-0/-|-0--0-0-----0--0--0------0-|
|-0--0-0-----0--------------|-3--3-3-3-3-3----|-0--0-0-----0--------------|
  Q  E E     E  E  E      E                     Q  E E     E  E  E      E


                       H.=H
                                         PM
  Q  E E E E E S S   E E E E E E Q    E  E Q  W
|------------------|----------------|--------------*|
|------------------|----------------|--------------*|
|----2-2-2-2-2-----|----------------|--------------*|
|-3--3-3-3-3-3-5p3-|-4-4-4-4-4------|-x\-----------*|
|-3--3-3-3-3-3-3---|-0---------3-3--|-x\-----------*|
|-3--3-3-3-3-3-3---|-0--------------|-x\-0---------*|





Comments


Popular Nirvana tabs & chords
Love Buzz 3 Bass Tabs
Ain't It A Shame Chords
Dumb 3 Chords
Ain't It A Shame 1 Tabs
D- Tabs
Jesus Don't Want Me For A Sunbeam 1 Tabs
Radio Friendly Unit Shifter 2 Tabs
Stain 1 Tabs
Very Ape 1 Tabs
Mollys Lips Ukulele


Song lyrics



↑ Back to top | Tablatures and chords are parodies/interpretations of the original songs. You may use it for private study, scholarship, research or language learning purposes only
© 2014 AZChords.com Contact us | Privacy policy | DMCA | Add/correct tabs | Request tabs | Top 50 tabs