» » »

Nirvana, Heart - Shaped Box Tabs (ver.3)

Artists:  A B C D E F G H I J K L M N O P Q R S T U V W X Y Z # 

Heart - Shaped Box Tabs (ver.3)

Nirvana Tabs
 Rating:
4/5 (4 votes)
Heart - Shaped Box lessons Tabs too difficult? Try these video lessons and learn fast
                D-Tuning: D A D G B E

Verse:
3:-----2-----------------------------2----------------------------
4:---2--2------3--------0---0------2--2------3------/4-4---4-----0
5:-0---------3---3---0--------0--0---------3---3---------0---0-3--
6:---------3-------0------0---------------3--------0--------------

Chorus:
3:-2-2-4~ -----4~ ---------------4~
4:-2-2-----3-3------/4-4---4-------
5:-0-0-----3-3-----------0---0-3---
6:---------3-3----0----------------

Post-chorus:
4:-3-3-3-3-3-3-3-3-0-/4-4---4------0
5:-3-3-3-3-3-3-3-3-0------0----0-3--
6:-3-3-3-3-3-3-3-3-0----------------

Guitar Solo:
3:---8~ ---6~ ---5-3-------------8~ ---6~ --5-3---------
4:-7-----5-----3------5-3-2-2/7-----5-----3-----5-3-2-0
            
Submit corrections

comments powered by Disqus
↑ Back to top | Nirvana Tabs for Heart - Shaped Box. Lyrics for acoustic guitar and electric guitar. Tablatures and chords are parodies/interpretations of the original songs. You may use it for private study, scholarship, research or language learning purposes only