>
 >
Heart - Shaped Box 1

Heart - Shaped Box 1 Guitar Tabs

Nirvana - Heart - Shaped Box 1 chords, tabs, tablatures, lyrics

Guitar lessons | Add/correct | Request | Top 50 tabs Artists:  A B C D E F G H I J K L M N O P Q R S T U V W X Y Z 0-9

Heart - Shaped Box 1 Guitar Tabs – Nirvana

CD, Sheet music, Poster

Do you like Heart - Shaped Box 1? Share with your friends now
Bass TabsChordsTabsTabs v2Tabs v3
he   rt
                            x///a///s
                            o///////h  
                             b/////a
                              d///p
                                e  
                 ~~~~~~~Heart Shaped Box~~~~~~~~
                           Nirvana
                        from In Utero
QUESTIONS???
-Feel free to IM

<((shout))>
--It had come to my attention that there alot of mother F***ers that
seem to not be able to hear a note of this song. I know this is about
the 10th version submitted, but beleive me. I've been playing for a
long time, and I have studied this song forever. And now i have a,
what i beleive, is a completely correct tab of the song. If it wasn't,
would I have taken the time to draw that heart? I didn't think so...

***********************************************
       BEFORE NOTES!!!   READ!!!
***********************************************
   In order to paly this song correctly, you
need a couple things...

1)Tune your guitars bottome string a little below D
   to A# i believe it is. im not quite certain, 
   I know it's a step below D.
***this is very important because if you dont, you
    can't play the song correctly, trust me***

2)You need some sort of heavy gain, or a fuzz pedal.
  this is nessisary in order to play the chorus and
  solo. in case you're retarded.

3)Even if you play this version, it won't sound exactly
  right. Not only because of the missing bass, but also
  either theres a seccond guitar, or kurt recorded extra
  sounds over the track after they layed it down the
  first time. I'll have the seccond guitar in later.

***---Here is a list of special symbols and notes
      I'll use through out the tab, refer to it
      if you need to---***

/   -   SLIDE, slide from previous note to the next

h   -   HAMMER ON, strongly press your finger on the 
        next note, don't pick

B   -   FULL BEND, bend the string so that the pitch
        is the sound of one fret above your current
        fret. EX)If you full bend on fret 5, the 
                 sound produced will be that of fret
                 6.

b   -   HALF BEND, bend the string so that the pitch
        is the sound of a half fret above your current
        fret. EX)If you half bend on fret 5, the sound
              produced will be that of somewhere in 
              between 5 and 6.

~   -   RING OUT, let the note ring out, even while
        playing new notes.

()  -   LOW NOTE, Don't play notes in parentheses as hard
        as others, pluck soft. Applies to all notes within 
        a set of parenthese. EX)
        ---(6)--7--     or        ---(6---7)-
         LOW^                   BOTH LOW^


***********************************************
       LETS GET TO IT!!!!  
***********************************************
--==--SOME TIPS--==--
-you have my gaurantee that this is a correct tab
-remember, that a# is tuned down below the d, not tuned up.
-Instructions on guitar effects, such as distortion, will 
 appear directly below the part where the effect comes in.
 [An arrow (^) will point to the spot in the tab]
-lyrics apear directly above the line that they are played on
-lyrics that are all jumbled above each other are just that 
 way so i could fit them in.
  INTRO/VERSE 1

E ]----------------------------------------------------------------------
B ]----------------------------------------------------------------------
G ]----------------------------------------------------------------------
D ]---6----2---------------------6----2----0h1/3-3-4---3-4---------------
A ]--6-6--2-2------(2-4--2-4-)--6-6--2-2----------2-2--4-4---------------
A#]-7----3----0~~~-(--------7)-7----3----0-------------------------------
    

    she eyes me like a peices when I am weak,
E ]-----------------------------------------------------------------------
B ]-----------------------------------------------------------------------
G ]----------------(---------4)-------------------------------------------
D ]---6----2-------(---------4)---6----2------1/3-3-3---------------------
A ]--6-6--2-2------(2-4--2-4--)--6-6--2-2----------2-2-2-4----------------
A#]-7----3----0~~~-(----------)-7----3----0-------------------------------

    I   your heart shaped box for weeks,
    been locked inside 
E ]---------------------------------------------------------------------
B ]---------------------------------------------------------------------
G ]----------------(---------4)---6----2--------------------------------
D ]---6----2-------(---------4)---6----2----3-3-3-3---------------------
A ]--6-6--2-2------(2-4--2-4--)--6----2------------2-2-4----------------
A#]-7----3----0~~~-(----------)-7----3----0-----------------------------

    I            your magnet tar pit trap,
    been drawn into  
E ]---------------------------------------------------------------------
B ]---------------------------------------------------------------------
G ]---6-----------------------------------------------------------------
D ]---6----2-------(---------4)---6----2----3-3-3-3---------------------
A ]--6----2-2------(2-4--2-4--)--6-6--2-2----------2-2-4----------------
A#]-7----3----0~~~-(----------)-7----3----0-----------------------------

    I          your cancer when you turn 
    wish I could eat                 back,
E ]---------------------------------------------------------------------
B ]---------------------------------------------------------------------
G ]---------------------------------------------------------------------
D ]---6----2-------(---------4)---6----2----3-3-3-3---------------------
A ]--6-6--2-2------(2-4--2-4--)--6-6--2-2----------2-2-4----------------
A#]-7----3----0~~~-(----------)-7----3----0-----------------------------
////ADD DISTROTION (HEAVY GAIN/FUZZ) HERE^

  CHORUS 1
       HEY    WAIT I Got A New Complaint
E ]---------------------------------------------------------------------|P
B ]---------------------------------------------------------------------|L
G ]-----4b-----4b---------------4b--------------------------------------|A
D ]-6-6----2-2------1/3-3-3-3-------------------------------------------|Y
A ]-6-6----2-2----------------2-----------------------------------------|
A#]-7-7----3-3----0-----------------------------------------------------|3
       Forever                                                          | 
           In Debt to your priceless Advice                             |T
E ]---------------------------------------------------------------------|I
B ]---------------------------------------------------------------------|M
G ]-----4b-----4b---------------4b--------------------------------------|E
D ]-6-6----2-2------1/3-3-3-3-------------------------------------------|S
A ]-6-6----2-2----------------2-----------------------------------------
A#]-7-7----3-3----0-----------------------------------------------------

ADVIIIIIIIIIIICE                 Your
E ]---------------------------------------------------------------------
B ]---------------------------------------------------------------------
G ]-----------------------------(4)-(4b)-4b-----------------------------
D ]-2-2-2-2-2-2-2-2-----------------------------------------------------
A ]-2-2-2-2-2-2-2-2-----------------------------------------------------
A#]-3-3-3-3-3-3-3-3-0~~~~~~~~~~~~---------------------------------------


ADVIIIIIIIIIIIIIICE
E ]---------------------------------------------------------------------
B ]---------------------------------------------------------------------
G ]---------------------------------------------------------------------
D ]-2-2-2-2-2-2-2-2---1/3-3-3-3-----------------------------------------
A ]-2-2-2-2-2-2-2-2-------------2-2-4-----------------------------------
A#]-3-3-3-3-3-3-3-3-0~~~~~~~~~~~~---------------------------------------

  VERSE 2
-End distortion   
    Meat eating orchids
                   forgive no one just yet,
E ]---------------------------------------------------------------------
B ]---------------------------------------------------------------------
G ]---------------------------------------------------------------------
D ]---6----2----------------------6----2----1/3-3-3-3-------------------
A ]--6-6--2-2------(2-4--2-4)----6-6--2-2------------2-2-4--------------
A#]-7----3----0~~~-(--------)-7-7----3----0-----------------------------
    Cut myself on angel
                   hair and ba-by's breath,
E ]---------------------------------------------------------------------
B ]---------------------------------------------------------------------
G ]---6-----------------------------------------------------------------
D ]---6----2----------------------6----2----1/3-3-3-3-------------------
A ]--6----2-2------(2-4--2-4)----6-6--2-2------------2-2-4--------------
A#]-7----3----0~~~-(--------)-7-7----3----0-----------------------------
    Broken Hymen of your
                    Highness I'm left black,
E ]---------------------------------------------------------------------
B ]---------------------------------------------------------------------
G ]---6---------------------------6-------------------------------------
D ]---6----2----------------------6----2----1/3-3--3--------------------
A ]--6----2-2------(2-4--2-4)----6----2-2---------2-2-2-4---------------
A#]-7----3----0~~~-(--------)-7-7----3----0-----------------------------
    Thow down your  so I can
      umbyllical noose       Climb     
E ]---------------------------------------------------------------------
B ]---------------------------------------------------------------------
G ]---6------------(---------4)---6-------------------------------------
D ]---6----2-------(---------4)---6----2----3-3-3-3---------------------
A ]--6----2-2------(2-4--2-4--)--6----2-2----------2-2-4----------------
A#]-7----3----0~~~-(----------)-7----3----0-----------------------------
////ADD DISTROTION (HEAVY GAIN/FUZZ) HERE^

  CHORUS 2
       HEY    WAIT I Got A New Complaint
E ]---------------------------------------------------------------------|P
B ]---------------------------------------------------------------------|L
G ]-----4b-----4b---------------4b--------------------------------------|A
D ]-6-6----2-2------1/3-3-3-3-------------------------------------------|Y
A ]-6-6----2-2----------------2-----------------------------------------|
A#]-7-7----3-3----0-----------------------------------------------------|3
       Forever                                                          | 
           In Debt to your priceless Advice                             |T
E ]---------------------------------------------------------------------|I
B ]---------------------------------------------------------------------|M
G ]-----4b-----4b---------------4b--------------------------------------|E
D ]-6-6----2-2------1/3-3-3-3-------------------------------------------|S
A ]-6-6----2-2----------------2-----------------------------------------
A#]-7-7----3-3----0-----------------------------------------------------

ADVIIIIIIIIIIICE                 Your
E ]---------------------------------------------------------------------
B ]---------------------------------------------------------------------
G ]-----------------------------(4)-(4b)-4b-----------------------------
D ]-2-2-2-2-2-2-2-2-----------------------------------------------------
A ]-2-2-2-2-2-2-2-2-----------------------------------------------------
A#]-3-3-3-3-3-3-3-3-0~~~~~~~~~~~~---------------------------------------


ADVIIIIIIIIIIIIIICE
E ]---------------------------------------------------------------------
B ]---------------------------------------------------------------------
G ]---------------------------------------------------------------------
D ]-2-2-2-2-2-2-2-2---1/3-3-3-3-----------------------------------------
A ]-2-2-2-2-2-2-2-2-------------2-2-4-----------------------------------
A#]-3-3-3-3-3-3-3-3-0~~~~~~~~~~~~---------------------------------------


  SOLO
-notice that the full bend and a slide are combined. Just bend
 the string up and then slide down with it still bent. Also,
 as you slide, gradually decrease the bend.(It's hard to explain)

E ]--------------------------------------
B ]----7B/4----5B/2-------5b-3b----------\
G ]-6-6-----4-4----------------5b-4b-3b-- -PLAY TWICE
D ]-----------------6~~~~----------------/
A ]-----------------4~~~~----------------
A#]--------------------------------------

E ]---------------------------------------------------------------------
B ]---------------------------------------------------------------------
G ]---------------------------------------------------------------------
D ]-6~~~~~~~~~~~~~~~~~~~~~~~~~~~~~~-6~~~~~~~~~~~~~~~~~~~~~~~~~~~~~~~~---
A ]-6~~~~~~~~~~~~~~~~~~~~~~~~~~~~~~-6~~~~~~~~~~~~~~~~~~~~~~~~~~~~~~~~---
A#]-7~~~~~~~~~~~~~~~~~~~~~~~~~~~~~~-------------------------------------
////////TURN VOLUME UP FOR THIS NOTE^
  VERSE 3 (1 REPEATED)

    she eyes me like a peices when I am weak,
E ]---------------------------------------------------------------------
B ]---------------------------------------------------------------------
G ]-------------------------4-------------------------------------------
D ]---6----2----------------4---6----2------1/3-3-3-3-------------------
A ]--6-6--2-2------2-4--2-4----6-6--2-2--------------2-2-4--------------
A#]-7----3----0~~~------------7----3----0-------------------------------

    I   your heart shaped box for weeks,
    been locked inside 
E ]---------------------------------------------------------------------
B ]---------------------------------------------------------------------
G ]---6---------------------4---6---------------------------------------
D ]---6----2----------------4---6----2----1/3-3-3-----------------------
A ]--6----2-2------2-4--2-4----6----2-2--------2-2-2-4------------------
A#]-7----3----0~~~------------7----3----0-------------------------------

    I            your magnet tar pit trap,
    been drawn into  
E ]---------------------------------------------------------------------
B ]---------------------------------------------------------------------
G ]---6-------------------------6---------------------------------------
D ]---6----2----------------4---6----2----1/3-3-3-----------------------
A ]--6----2-2------2-4--2-4----6----2-2--------2-2-2-4------------------
A#]-7----3----0~~~------------7----3----0-------------------------------

    I          your cancer when you turn 
    wish I could eat                 back,
E ]---------------------------------------------------------------------
B ]---------------------------------------------------------------------
G ]---6-----------------------------------------------------------------
D ]---6----2----------------4---6----2----3-3-3-3-----------------------
A ]--6----2-2------2-4--2-4----6-6--2-2----------2-2-4------------------
A#]-7----3----0~~~------------7----3----0-------------------------------
////ADD DISTROTION (HEAVY GAIN/FUZZ) HERE^

  CHORUS 3 Final
       HEY    WAIT I Got A New Complaint
E ]---------------------------------------------------------------------|P
B ]---------------------------------------------------------------------|L
G ]-----4b-----4b---------------4b--------------------------------------|A
D ]-6-6----2-2------1/3-3-3-3-------------------------------------------|Y
A ]-6-6----2-2----------------2-----------------------------------------|
A#]-7-7----3-3----0-----------------------------------------------------|3
       Forever                                                          | 
           In Debt to your priceless Advice                             |T
E ]---------------------------------------------------------------------|I
B ]---------------------------------------------------------------------|M
G ]-----4b-----4b---------------4b--------------------------------------|E
D ]-6-6----2-2------1/3-3-3-3-------------------------------------------|S
A ]-6-6----2-2----------------2-----------------------------------------
A#]-7-7----3-3----0-----------------------------------------------------

ADVIIIIIIIIIIICE                 Your
E ]---------------------------------------------------------------------
B ]---------------------------------------------------------------------\
G ]-----------------------------(4)-(4b)-4b----------------------------- -Play 3 Times
D ]-2-2-2-2-2-2-2-2-----------------------------------------------------/
A ]-2-2-2-2-2-2-2-2-----------------------------------------------------
A#]-3-3-3-3-3-3-3-3-0~~~~~~~~~~~~---------------------------------------


ADVIIIIIIIIIIIIIICE
E ]---------------------------------------------------------------------
B ]---------------------------------------------------------------------
G ]---------------------------------------------------------------------
D ]-2-2-2-2-2-2-2-2---1/3-3-3-3-----------------------------------------
A ]-2-2-2-2-2-2-2-2-------------2-2~~~~~~~~~~~~~~~~~~-------------------
A#]-3-3-3-3-3-3-3-3-0~~~~~~~~~~~~---------------------------------------





Comments


Popular Nirvana tabs & chords
D-7 Bass Tabs
In His Hands Bass Tabs
Lithium 2 Bass Tabs
Polly Live Bass Tabs
Aneurysm Live 1 Tabs
Breed Tabs
Oh Me 2 Tabs
Old Age Tabs
On A Plain 1 Tabs
Come As You Are 2 Ukulele


Song lyrics



↑ Back to top | Tablatures and chords are parodies/interpretations of the original songs. You may use it for private study, scholarship, research or language learning purposes only
© 2014 AZChords.com Contact us | Privacy policy | DMCA | Add/correct tabs | Request tabs | Top 50 tabs