» » »

Nirvana, Heart - Shaped Box Chords (ver.1)

Artists:  A B C D E F G H I J K L M N O P Q R S T U V W X Y Z # 

Heart - Shaped Box Chords (ver.1)

Nirvana Tabs
Rating:
0/5 (0 votes)
Heart - Shaped Box lessons Tabs too difficult? Try these video lessons and learn fast
                Group:                                    --------Nirvana---------

Hi there, There are too many crds in the web I tyr it all, (too hard), but
my brother show me how to play better, and its sounds pretty cool


CHORDS:
G?  466544   like an F in the 4th feet
E    022100
C?  446664   like an B inthe 4th feet

RIFFs:

{A rifF}
   {-----G?-----}  {----E---}  
1:------------------------------- 
2:------------------------------- 
3:------------------------------- 
4:---------6--------------2----- 
5:-----6-------6------2----2--  
6:--4---------------0-----------  

{B riff}
   {-------------C?----}  
1:--------------------------- 
2:--------6------------------ 
3:--6--------------6------ 
4:--6----------6-----6--- 
5:--4---------------------  
6:-------------------------  

{C riff}
  {-------------C?-----------}
1:--------------------------- 
2:--------6---6--6--6----------4---- 
3:--6-------------------6---6---- 
4:--6------------------ 
5:--4---------------------  
6:-------------------------  

And the songs goes like

Intro: Riff A (G?-E) - Riff B(C?) - Riff-A (G?-E)- Riff C(G?)


Riff A    - Riff B -      Riff-A-        Riff C

She eyes me like a pisces when I am weak 
I've been locked inside your Heart-Shaped box for a week I was drawn into
your magnet tar pit trap I wish I could eat your cancer when you turn back 

CHOURUS:  
        {G?}
Hey  {G?}        {E}
Wait {E}
        {C?} I've got a new conplaint {riff B}        {G?}
Fore {G?}
        {E}
ver in {E}
debt to your priceless advice {C?}
                                           E - C? (PAUSE) E - riff C

The rest of the song is the same thing. here you got the lyrics: 

Meat-eating orchids forgive no one just yet 
Cut myself angel's hair and baby's breath 
Broken hymen of your highness I'm left black 
Throw down your umbilical noose so I can climb right back


                 My Parents for bought me the electric Guitar 
                 And Thaks Very much to Nirvana for the exelent music

Luis Erique Guajala
Loja, Ecuador
Ahí nos vemos muchachos
            
Submit corrections

comments powered by Disqus
↑ Back to top | Nirvana Chords for Heart - Shaped Box. Lyrics for acoustic guitar and electric guitar. Tablatures and chords are parodies/interpretations of the original songs. You may use it for private study, scholarship, research or language learning purposes only