» » »

Nirvana, Heartbreaker Tabs (ver.1)

Artists:  A B C D E F G H I J K L M N O P Q R S T U V W X Y Z # 

Heartbreaker Tabs (ver.1)

Nirvana Tabs
Rating:
0/5 (0 votes)
Hard to play? Try these video lessons and learn fast.
                NIRVANA - HEARTBREAKER(1987)
WITH THE LIGHTS OUT (BOX SET)

INTRO -
e:-----|-------------------------------------------| x1
B:-----|-------------------------------------------|
G:-----|-------------------------------------------|
D:-----|-------0--1-2------------------0--1-2------|
A:-0H3-|-0--3---------------0-0-0-0-3--------------|
E:-----|---------------3B5--------------------3B5--|

e:------------------------------------------| x2
B:------------------------------------------|
G:------------------------------------------|
D:-------0--1-2-----------------0--1-2------|
A:-0--3--------------0-0-0-0-3--------------|
E:--------------3B5--------------------3B5--|

e:------------------------------------------| x2
B:------------------------------------------|
G:------------------------------------------|
D:-------2--3-4-----------------2--3-4------|
A:-2--5--------------2-2-2-2-5--------------|
E:--------------5B7--------------------5B7--|

e:------------------------------------------| x2
B:------------------------------------------|
G:------------------------------------------|
D:-------0--1-2-----------------0--1-2------|
A:-0--3--------------0-0-0-0-3--------------|
E:--------------3B5--------------------3B5--|
VERSE - (HOW EVER MANY TIMES)
e:--------------------------------------------------|
B:-------7-------7-------7-------7-----7---7---7----|
G:-2-----7-6-----7-6-----7-6-----7-6---7-6-7-6-7-6--|
D:-2-----7-7-----7-7-----7-7-----7-7---7-7-7-7-7-7--|
A:-0-----5-7-----5-7-----5-7-----5-7---5-7-5-7-5-7--|
E:---------5-------5-------5-------5-----5---5---5--|
            

comments powered by Disqus
↑ Back to top | Nirvana Tabs for Heartbreaker. Lyrics for acoustic guitar and electric guitar. Tablatures and chords are parodies/interpretations of the original songs. You may use it for private study, scholarship, research or language learning purposes only