» » »

Nirvana, Hairspray Queen Bass tabs (ver.1)

Artists:  A B C D E F G H I J K L M N O P Q R S T U V W X Y Z # 

Hairspray Queen Bass tabs (ver.1)

Nirvana Tabs
Rating:
0/5 (0 votes)
Hairspray Queen lessons Tabs too difficult? Try these video lessons and learn fast
                Main Riff
G-----------------------------|
D-----------------------------|
A--5----------12--------------|
E-----0-2/11-------12\--------|


chorus
G-----------------------------------------|
D-----------------------------------------|
A-----------------------------------------|
E-----0-------------0-------------0-------|

(2:46)
crazy bridge type thing
G-----------------------|
D-----------------------|
A--3-4-5-4-3-4-3-4------|keep accending a half step until its time for the main riff
E-----------------------|

The next time into the crazy bass line thing start from were you left off
last and add some slides.

(3:52)
outro
G--------------------------------------|
D--------------------------------------|
A--------------------------------------|
E----6-5-0---5-4-0---4-3-0---3-2-3-2-0-|
            

comments powered by Disqus
↑ Back to top | Nirvana Bass for Hairspray Queen. Lyrics for acoustic guitar and electric guitar. Tablatures and chords are parodies/interpretations of the original songs. You may use it for private study, scholarship, research or language learning purposes only