>
 >
From The Muddy Banks Of The Wishkah

From The Muddy Banks Of The Wishkah Guitar Tabs

Nirvana - From The Muddy Banks Of The Wishkah chords, tabs, tablatures, lyrics

Guitar lessons | Add/correct | Request | Top 50 tabs Artists:  A B C D E F G H I J K L M N O P Q R S T U V W X Y Z 0-9

From The Muddy Banks Of The Wishkah Guitar Tabs – Nirvana

CD, Sheet music, Poster

Do you like From The Muddy Banks Of The Wishkah? Share with your friends now
Tabs
PROPS GO TO: kdcobain.de






___________________________________________________________

School
____________________________________________________________

TUNING: 

Regular tuning

INTRO
e----------------------------------------------------------------------------
b----------------------------------------------------------------------------
g----------------------------------------------------------------------------
d----------------------------------------------------------------------------
a----------------------------------------------------------------------------
e--0~~~~~----------(0)~~~~~~-------------------------------------------------

VERSE
e----------------------------------------------------------------------------
b----------------------------------------------------------------------------
g----------------------------------------------------------------------------
d----------------------------------------------------------------------------
a------------)r-----)r----------------)--------------------------------------
e--0--0--0--5---0--5--0--0--0--0--0--5---------------------------------------

CHORUS
e----------------------------------0---0---0-0--0---0-0-0-0-0-0--------------
b----------------------------------0---0---0-0--0---3-3-3-3-3-3--------------
g--5---5--5-5--5-------------------x---x---x-x--x-0-2-2-2-2-2-2--------------
d--5---5--5-5--5-0--7-7-7-7-7-7----2---2---2-2--2-0-0-0-0-0-0-0--------------
a--3---3--3-3--3-0--7-7-7-7-7-7----2---2---2-2--2----------------------------
e-------------------5-5-5-5-5-5----0---0---0-0--0----------------------------

e----------------------------------------------------------------------------
b----------------------------------------------------------------------------
g--5----5--5-5--5------------------------------------------------------------
d--5----5--5-5--5-0-7-7-7-7-7-7----------------------------------------------
a--3----3--3-3--3-0-7-7-7-7-7-7----------------------------------------------
e-------------------5-5-5-5-5-5----------------------------------------------

BRIDGE
e----------------------------------------------------------------------------
b-------------------------13-13/---------------------------------------------
g-------------------12----12-12/---------------------------------------------
d-------------11----11-------------------------------------------------------
a-------------10--x----------------------------------------------------------
e--0--0--0-------------------------------------------------------------------

SOLO
e---)--)(----)(--------------------------------------------------------------
b--2--2-(2)-2-(2)----------------------------------7-------------------------
g--2--2-(2)-2-(2)-0------------2-0-2-(2)-0-2/7-7-7-7-7-9-(11)\----0----------
d-------------------2-0-2--------------------------------------/9---9^7^0----
a----------------------------------------------------------------------------
e-------------------------3/0------------------------------------------------

e----------------------------------------------------------------------------
b-------------)------------------)-------------------------------------------
g--------2-2-2-2-2-2~~~~~-----0-2-0-0-2-(0)-------------2---2/7-7-7-7-9-7----
d--9^7^0------------------0-0---------------2-------2-5---5------------------
a-------------------------------------------------5--------------------------
e---------------------------------------------5-0----------------------------

e------------------)---)-10-10-10^9^7----7-----------------------------------
b--11-8---8^10-8^10--10---------------10---10-10-10^8------------------------
g-------0---------------------------------------------9-7-7-9-7-7-9-9-9~~~~~-
d----------------------------------------------------------------------------
a----------------------------------------------------------------------------
e----------------------------------------------------------------------------

e----------------------------------------------------------------------------
b-------------------)--------------------------------------------------------
g--9-7-7-7\6-6-6\4-4--2-2^0-2~~~~~~~~~~~-------------------------------------
d----------------------------------------------------------------------------
a----------------------------------------------------------------------------
e-----------------------------------------(12)\------------------------------


_________________________________________________________

Drain You
____________________________________________________________

TUNING: 

Tune down 1 whole step

INTRO
e----------------------------------------------------------------------------
b----------------------------------------------------------------------------
g--4--4-4--4/8--8-8--0--------0--6--6-6--0--4--4-4--4/8--8-8--0--------0--6--
d--4--4-4--4/8--8-8--0--6--6--0--6--6-6--0--4--4-4--4/8--8-8--0--6--6--0--6--
a--2--2-2--2/6--6-6--0--6--6--0--4--4-4--0--2--2-2--2/6--6-6--0--6--6--0--4--
e-----------------------4--4-------------------------------------4--4--------

with distortion
e----------------------------------------------------------------------------
b----------------------------------------------------------------------------
g--6-6--0--------------------------------------------------------------------
d--6-6--0--------------------------------------------------------------------
a--4-4--0--------------------------------------------------------------------
e----------------------------------------------------------------------------

VERSE
e----------------------------------------------------------------------------
b----------------------------------------------------------------------------
g--4--4-4--4/8--8-8--0--------0--6--6-6--0-----------------------------------
d--4--4-4--4/8--8-8--0--6--6--0--6--6-6--0-----------------------------------
a--2--2-2--2/6--6-6--0--6--6--0--4--4-4--0-----------------------------------
e-----------------------4--4-------------------------------------------------
play that 6 times

PRE-CHORUS
e----------------------------------------------------------------------------
b----------------------------------------------------------------------------
g----------------------------------------------------------------------------
d--4--4-----2----------------------------------------------------------------
a--4--4-----2----------------------------------------------------------------
e--2--2--0--0--0-------------------------------------------------------------

CHORUS
e----------------------------------------------------------------------------
b----------------------------------------------------------------------------
g--6-6-6-6-6-6-6-0-----------------------------------------------------------
d--6-6-6-6-6-6-6-0-2-2-2-2-2-2-2---------------------------------------------
a--4-4-4-4-4-4-4-0-2-2-2-2-2-2-2---------------------------------------------
e------------------0-0-0-0-0-0-0-0-------------------------------------------

play that 3 times, then
e----------------------------------------------------------------------------
b----------------------------------------------------------------------------
g--6-6-6-6-6-6-6-0-----------------------------------------------------------
d--6-6-6-6-6-6-6-0-----------------------------------------------------------
a--4-4-4-4-4-4-4-0-----------------------------------------------------------
e----------------------------------------------------------------------------

then
e----------------------------------------------------------------------------
b----------------------------------------------------------------------------
g--4--------2----------------------------------------------------------------
d--4--------2---------6------------------------------------------------------
a--2--------0---------6------------------------------------------------------
e---------------------4------------------------------------------------------

before 2nd verse
e----------------------------------------------------------------------------
b----------------------------------------------------------------------------
g----------------------------------------------------------------------------
d--6/-\----------------------------------------------------------------------
a--6/-\----------------------------------------------------------------------
e--4/-\----------------------------------------------------------------------

after 2nd chorus
e----------------------------------------------------------------------------
b----------------------------------------------------------------------------
g--4--------2----------------------------------------------------------------
d--4--------2---------6------------------------------------------------------
a--2--------0---------6------------------------------------------------------
e---------------------4------------------------------------------------------

in the background there are studio noises, but hold this note
e----------------------------------------------------------------------------
b----------------------------------------------------------------------------
g----------------------------------------------------------------------------
d--6-------------------------------------------------------------------------
a--6-------------------------------------------------------------------------
e--4-------------------------------------------------------------------------

then this chord, played alternating between distortion and clean
e--0----------------------------0--------------------------------------------
b--0----------------------------0--------------------------------------------
g--0----------------------------0--------------------------------------------
d----------------------------------------------------------------------------
a----------------------------------------------------------------------------
e----------------------------------------------------------------------------

play that 4 times, then
e----------------------------------------------------------------------------
b----------------------------------------------------------------------------
g--5\--4\--3\--2\--1/--2/--3/--4/--5-----------------------------------------
d--5\--4\--3\--2\--1/--2/--3/--4/--5-----------------------------------------
a--5\--4\--3\--2\--1/--2/--3/--4/--5-----------------------------------------
e----------------------------------------------------------------------------

then with distortion
e----------------------------------------------------------------------------
b--4-(5)--2/3---4---5/---6/---7/---8-----10--------14-------16/--------18/---
g----------------------------------------10--------14-------16/--------18/---
d-----------------------------------------------------------16/--------18/---
a----------------------------------------------------------------------------
e----------------------------------------------------------------------------

END
e----------------------------------------------------------------------------
b----------------------------------------------------------------------------
g--4--------2----------------------------------------------------------------
d--4--------2---------6------------------------------------------------------
a--2--------0---------6------------------------------------------------------
e---------------------4------------------------------------------------------



___________________________________________________________

Aneurysm
______________________________________________________________

TUNING: 

Normal tuning

INTRO
e----------------------------------------------------------------------------
b----------------------------------------------------------------------------
g-----------------5--------4--------2-----0----------------------------------
d-----4--------5--------4--4-----2--2--2--0----------------------------------
a--4--4--0--3--------0--2-----0--0-----0-------------------------------------
e--2-------------------------------------------------------------------------

e----------------------------------------------------------------------------
b----------------------------------------------------------------------------
g--------------5-----------4-----------2-----0-------------------------------
d-----4-----5--5--5-----4--4--4-----2--2--2--0-------------------------------
a--4--4--0--3-----3--0--2-----2--0--0-----0----------------------------------
e--2-------------------------------------------------------------------------

then
e----------------------------------------------------------------------------
b----------------------------------------------------------------------------
g--3~~~-3---3---3---3/4~~-(4)/5--5--5--5--5/7--7/9/10-10/11--14--14--14--14--
d----------------------------------------------------------------------------
a----------------------------------------------------------------------------
e----------------------------------------------------------------------------

e-----------14-14-14-14-14-16-17-x-x-x-x-x\----------------------------------
b--14-14-14------------------------------------------------------------------
g----------------------------------------------------------------------------
d----------------------------------------------------------------------------
a----------------------------------------------------------------------------
e----------------------------------------------------------------------------

then
e----------------------------------------------------------------------------
b----------------------------------------------------------------------------
g-----------5--5--5-----4--4--4-----2--2--2----------------------------------
d--4--4--0--5--5--5--0--4--4--4--0--2--2--2--0-------------------------------
a--4--4--0--3--3--3--0--2--2--2--0--0--0--0--0-------------------------------
e--2--2----------------------------------------------------------------------

play that 8 times, then
e----------------------------------------------------------------------------
b----------------------------------------------------------------------------
g--3--3--3--3--3--3/4--4--4--4--4/5--5--5--5--5--5/6--6--6--6--6/7--7--7--7--
d----------------------------------------------------------------------------
a----------------------------------------------------------------------------
e----------------------------------------------------------------------------

e----------------------------------------------------14-14----14-------------
b----------------------------------------------------14-14----14-------------
g--7/8--8--8--8--8--8/9-9-9-9-9-9-9-9-9-9-9/13-14-14-------14----------------
d----------------------------------------------------------------------------
a----------------------------------------------------------------------------
e----------------------------------------------------------------------------

then
e----------------------------------------------------------------------------
b----------------------------------------------------------------------------
g----------------------------------------------------------------------------
d--9-9-9-9-9-9-9-9-9-9-9-9-9-9-9-9-9-9-9-9-9-9-9-9-9-9-9-9-9-9-9-9-----------
a--9-9-9-9-9-9-9-9-9-9-9-9-9-9-9-9-9-9-9-9-9-9-9-9-9-9-9-9-9-9-9-9-----------
e--7-7-7-7-7-7-7-7-7-7-7-7-7-7-7-7-7-7-7-7-7-7-7-7-7-7-7-7-7-7-7-7-----------

e----------------------------------------------------------------------------
b----------------------------------------------------------------------------
g--7--7--7-7-7--7-7-7-7-7-7-7-7----------------------------------------------
d--7--7--7-7-7--7-7-7-7-7-7-7-7----------------------------------------------
a--5--5--5-5-5--5-5-5-5-5-5-5-5----------------------------------------------
e----------------------------------------------------------------------------

e----------------------------------------------------------------------------
b----------------------------------------------------------------------------
g-----------------------------------7--7--7-7-7--7-7-7-7-7-7-7-7-------------
d--9-9-9-9-9-9-9-9-9-9-9-9-9-9-9-9--7--7--7-7-7--7-7-7-7-7-7-7-7-------------
a--9-9-9-9-9-9-9-9-9-9-9-9-9-9-9-9--5--5--5-5-5--5-5-5-5-5-5-5-5-------------
e--7-7-7-7-7-7-7-7-7-7-7-7-7-7-7-7-------------------------------------------

VERSE
e----------------------------------------------------------------------------
b----------------------------------------------------------------------------
g-----------------------------------7--7--7-7-7--7-7-7-7-7-7-7-7-------------
d--9-9-9-9-9-9-9-9-9-9-9-9-9-9-9-9--7--7--7-7-7--7-7-7-7-7-7-7-7-------------
a--9-9-9-9-9-9-9-9-9-9-9-9-9-9-9-9--5--5--5-5-5--5-5-5-5-5-5-5-5-------------
e--7-7-7-7-7-7-7-7-7-7-7-7-7-7-7-7-------------------------------------------
play that 4 times, then

CHORUS
e----------------------------------------------------------------------------
b----------------------------------------------------------------------------
g----------------------------------------------------------------------------
d--4--4--6--7--7--7--8--9--9--9--8--7--7--7----------------------------------
a--4--4--6--7--7--7--8--9--9--9--8--7--7--7--0-------------------------------
e--2--2--4--5--5--5--6--7--7--7--6--5--5--5--0-------------------------------

play that 8 times, the repeat verse and chorus, then
e----------------------------------------------------------------------------
b----------------------------------------------------------------------------
g--3--3--3/4--4/5--5--5/6--6--6--6/7--7--7--7/8--8--8--8--8--8/9--9--9--9/10-
d----------------------------------------------------------------------------
a----------------------------------------------------------------------------
e----------------------------------------------------------------------------

e----------------------------------------------------------------------------
b----------------------------------------------------------------------------
g--10-10-10-10-10/11-11/12-13-13-14-14-14-14-14-14-14/15-15-15-15/16-17-17---
d----------------------------------------------------------------------------
a----------------------------------------------------------------------------
e----------------------------------------------------------------------------

e----------------------------------------------------------------------------
b----------------------------------------------------------------------------
g--17/18---------------------------------------------------------------------
d---------0------------------------------------------------------------------
a----------------------------------------------------------------------------
e----------------------------------------------------------------------------

then
e----------------------------------------------------------------------------
b----------------------------------------------------------------------------
g-----------5--5--5-----4--4--4-----2--2--2----------------------------------
d--4--4--0--5--5--5--0--4--4--4--0--2--2--2--0-------------------------------
a--4--4--0--3--3--3--0--2--2--2--0--0--0--0--0-------------------------------
e--2--2----------------------------------------------------------------------
play that 10 times

OUTRO
e----------------------------------------------------------------------------
b----------------------------------------------------------------------------
g--3--3--4--4--4--4--4--4--4--5--5--5--5--5--6--7--6--7--7--8--8--9--9--9----
d----------------------------------------------------------------------------
a----------------------------------------------------------------------------
e----------------------------------------------------------------------------

e--------------------------------------------------------x-x-x-x-x-----------
b--------------------------------------------------------x-x-x-x-x--/15\-----
g--10-10-12-12-11-12-13-14-14-14-15-15-16-16-16-17-17-17------------/15\-----
d----------------------------------------------------------------------------
a----------------------------------------------------------------------------
e----------------------------------------------------------------------------


___________________________________________________________

Smells Like Teen Spirit
________________________________________________________

TUNING: 

Normal tuning

INTRO
e----------------------------------------------------------------------------
b-----------------------------------x-x-x-x----------------------x-x-x-x-----
g----------x-0-x--3--3--00----------x-x-x-x--6--6-6--0-0---------x-x-x-x-----
d--3--3-3--x-0-x--3--3--00---6--6-6-x-x-x-x--6--6-6--0-0--3--3-3 x-x-x-x-----
a--3--3-3--x-0-x--1--1--00---6--6-6-x-x-x-x--4--4-4--0-0--3--3-3 x-x-x-x-----
e--1--1-1--------------------4--4-4-x-x-x-x---------------1--1-1 x-x-x-x-----

e----------------------------------------------------------------------------
b----------------------x-x-x-x-----------------------------------------------
g--3--3-3--0-0---------x-x-x-x-----------------------------------------------
d--3--3-3--0-0--6--6-6-x-x-x-x-----------------------------------------------
a--1--1-1--0-0--6--6-6-x-x-x-x-----------------------------------------------
e---------------4--4-4-x-x-x-x-----------------------------------------------

with distortion
e----------------------------------------------------------------------------
b------------------x-x-x-x-------------------x-x-x-x-------------------------
g--6--6------------x-x-x-x--3--3-------------x-x-x-x--6--6-------------------
d--6--6--0--3--3-3-x-x-x-x--3--3---0--6--6-6-x-x-x-x--6--6--0----------------
a--4--4--0--3--3-3-x-x-x-x--1--1---0--6--6-6-x-x-x-x--4--4--0----------------
e--------0--1--1-1-x-x-x-x---------0--4--4-4-x-x-x-x--------0----------------

then
e----------------------------------------------------------------------------
b---------x-x-x-x------------------x-x-x-x-----------------------------------
g---------x-x-x-x--3--3------------x-x-x-x--6--6-----------------------------
d--3--3-3-x-x-x-x--3--3--0--6--6-6-x-x-x-x--6--6---0-------------------------
a--3--3-3-x-x-x-x--1--1--0--6--6-6-x-x-x-x--4--4---0-------------------------
e--1--1-1-x-x-x-x--------0--4--4-4-x-x-x-x---------0-------------------------
play that 3 times

VERSE
e----------------------------------------------------------------------------
b-----6----------6----------6----------6----------6----------6---------------
g--5----------5----------5----------5----------5----------5------------------
d----------------------------------------------------------------------------
a----------------------------------------------------------------------------
e----------------------------------------------------------------------------

PRE-CHORUS
e----------------------------------------------------------------------------
b----6---6---6---6---6---6---6---6---6---6---6---6---6---6---6---------------
g--5---5---5---5---5---5---5---5---5---5---5---5---5---5---5---5-------------
d-------------------------------------------------------------------0--------
a-------------------------------------------------------------------0--------
e-------------------------------------------------------------------0--------

CHORUS
e----------------------------------------------------------------------------
b---------x-x-x-x------------------x-x-x-x-----------------------------------
g---------x-x-x-x--3--3------------x-x-x-x--6--6-----------------------------
d--3--3-3-x-x-x-x--3--3--0--6--6-6-x-x-x-x--6--6---0-------------------------
a--3--3-3-x-x-x-x--1--1--0--6--6-6-x-x-x-x--4--4---0-------------------------
e--1--1-1-x-x-x-x--------0--4--4-4-x-x-x-x---------0-------------------------

play that 6 times, then
e----------------------------------------------------------------------------
b-----------------)-------------------------------------)--------------------
g----------------3-------------------------------------3---------------------
d----------------------------------------------------------------------------
a--3--2--3--4-4-----3--2--3--/8-8--6--5--3--2--3--4-4-----3--2--3--/8-8--6--5
e--1--0--1--2-2-----1--0--1--/6-6--4--3--1--0--1--2-2-----1--0--1--/6-6--4--3

SOLO
e----------------------------------------------------------------------------
b------------------------)---------------------------------------------------
g-------8--10--------8--8-----6--5--6--5---------------)---------------------
d--10------------6---------------------------8--6--8--8----6--5--------------
a----------------------------------------------------------------------------
e----------------------------------------------------------------------------

play that 2 times, then
e----------------------------------------------------------------------------
e----------------------------------------------------------------------------
b----------------------------------------------------------------------------
g----------------------------------------------------------------------------
d--6--5---6--5---6--5---6-(5)-5\3---6--5---6--5---6--5---6-(5)-5\3-----------
a----------------------------------------------------------------------------
e----------------------------------------------------------------------------
play that 4 times

END
e----------------------------------------------------------------------------
b----------------------------------------------------------------------------
g----------------------------------------------------------------------------
d--3-------------------------------------------------------------------------
a--3-------------------------------------------------------------------------
e--1-------------------------------------------------------------------------


__________________________________________________________

Been A Son
__________________________________________________________

TUNING: 

Drop D tuning

INTRO/VERSE
e----------------------------------------------------------------------------
b--3--3------------3--3------------3--3------------3--3----------------------
g--2--2------------2--2------------2--2------------2--2----------------------
d--0--0------------0--0------------0--0------------0--0----------------------
a--------3--2--0---------3--2--0---------3--2--0---------3--2--0-------------
e----------------------------------------------------------------------------

play that 3 times, then
e----------------------------------------------------------------------------
b--3--3----------------------------------------------------------------------
g--2--2----------------------------------------------------------------------
d--0--0----------------------------------------------------------------------
a--------3--2--0-------------------------------------------------------------
e----------------------------------------------------------------------------

CHORUS
e----------------------------------------------------------------------------
b----------------------------------------------------------------------------
g----------------------------------------------------------------------------
d--5--5--5--3--3--2--2--2------------5--5--5--3--3--2--2--2------------------
a--5--5--5--3--3--2--2--2--3--2--0---5--5--5--3--3--2--2--2--3--2--0---------
e--5--5--5--3--3--2--2--2------------5--5--5--3--3--2--2--2------------------
play that 2 times.


_________________________________________________________

Lithium
__________________________________________________________

TUNING: 

Tune down 1 whole step

INTRO
e----------------------------------------------------------------------------
b----------------------------------------------------------------------------
g-------------------------6--x-----------------------------7--7--7-----------
d-------------------------6--x---------7------5--5-5--5/7--7--7--7-----------
a-------------6--------4-------------7--------3--3-3--3/5--5--5--5--0--------
e--0--x--0--4----x--0----------0--5-------0----------------------------------

e----------------------------------------------------------------------------
b----------------------------------------------------------------------------
g---------------7--7--7------------------------------------------------------
d--4--4-4--4/7--7--7--7------------------------------------------------------
a--2--2-2--2/5--5--5--5--0---------------------------------------------------
e----------------------------------------------------------------------------

VERSE
e----------------------------------------------------------------------------
b-------------------------------------------------5--------------------------
g-------------------------6--x--------------------5-------------7------------
d-------------------------6--x----------7------5-----5--5/7--7--7------------
a--------------6-------4-------------7---------3-----3--3/5--5-----0---------
e--0--x--0--4----x--0----------0--5-------0----------------------------------

e----------------------------------------------------------------------------
b-----4-------------7--------------------------------------------------------
g-----4-------------7--------------------------------------------------------
d--4-----4--4/7--7-----------------------------------------------------------
a--2-----2--2/5--5-----------------------------------------------------------
e----------------------------------------------------------------------------

play that 3 times, then
e----------------------------------------------------------------------------
b-------------------------------------------------5--------------------------
g-------------------------6--x--------------------5-------------7------------
d-------------------------6--x----------7------5-----5--5/7--7--7------------
a--------------6-------4-------------7---------3-----3--3/5--5-----0---------
e--0--x--0--4----x--0----------0--5-------0----------------------------------

with distortion
e----------------------------------------------------------------------------
b----------------------------------------------------------------------------
g---------------7--7---------------------------------------------------------
d--4--4-4--4/7--7--7---------------------------------------------------------
a--2--2-2--2/5--5--5--0------------------------------------------------------
e----------------------------------------------------------------------------

CHORUS
e----------------------------------------------------------------------------
b----------------------------------------------------------------------------
g------------------6--6---------------5--5-5--5/7--7--7----------------------
d--2--2----6--6----6--6----7--7--7----5--5-5--5/7--7--7----------------------
a--2--2----6--6----4--4----7--7--7----3--3-3--3/5--5--5--0-------------------
e--0--0-0--4--4-0-------0--5--5--5-0-----------------------------------------

e----------------------------------------------------------------------------
b----------------------------------------------------------------------------
g--4--4-4--4/7--7--7---------------------------------------------------------
d--4--4-4--4/7--7--7---------------------------------------------------------
a--2--2-2--2/5--5--5--0------------------------------------------------------
e----------------------------------------------------------------------------
play that 3 times

BRIDGE
e----------------------------------------------------------------------------
b----------------------------------------------------------------------------
g----------5--5--------------5------------------5--5--------------5----------
d--7--7----5--5-----7--7-----5----------7--7----5--5-----7--7-----5----------
a--7--7----3--3-----7--7-----3----------7--7----3--3-----7--7-----3----------
e--5--5-0--------0--5--5-0-----0--3--4--5--5-0--------0--5--5--0-----0--3--4-

play that 4 times, then
e----------------------------------------------------------------------------
b----------------------------------------------------------------------------
g----------------------------------------------------------------------------
d--7-7-7-7-7-7-7---4-4-4-4-4-------------------------------------------------
a--5-5-5-5-5-5-5-0-2-2-2-2-2-------------------------------------------------
e------------------------------0--3------------------------------------------

END
e----------------------------------------------------------------------------
b----------------------------------------------------------------------------
g----------------------------------------------------------------------------
d----------------------------------------------------------------------------
a----------------------------------------------------------------------------
e--0-------------------------------------------------------------------------


_________________________________________________________

Sliver
__________________________________________________________

TUNING: 

Normal tuning

BASS INTRO
g----------------------------------------------------------------------------
d----------------------------------------------------------------------------
a--3--3-3-----------3--3-0-----0-1--3--3-3---------3--1-0-----0-1------------
e----------1--1-1-----------3---------------1--1-1---------3-----------------

CHORUS
e----------------------------------------------------------------------------
b----------------------------------------------------------------------------
g----------0--5--5-5--0------------------------------------------------------
d--7--7--7-0--5--5-5--0------------------------------------------------------
a--7--7--7-0--3--3-3--0------------------------------------------------------
e--5--5--5-------------------------------------------------------------------
play that 8 times

VERSE
e----------------------------------------------------------------------------
b----------------------------------------------------------------------------
g--5--5-0-------0--5--0---------0--5--5-0--------0--5--0----------0--5--5-0--
d--5--5-0--3--3-0--5--0--7--7-7-0--5--5-0--3-3-3-0--5--0--7--7-7--0--5--5-0--
a--3--3-0--3--3-0--3--0--7--7-7-0--3--3-0--3-3-3-0--3--0--7--7-7--0--3--3-0--
e----------1--1----------5--5-5------------1-1-1----------5--5-5-------------


e----------------------------------------------------------------------------
b----------------------------------------------------------------------------
g--------0--5--0----------0--------------------------------------------------
d--3-3-3-0--5--0--7--7-7--0--------------------------------------------------
a--3-3-3-0--3--0--7--7-7--0--------------------------------------------------
e--1-1-1----------5--5-5-----------------------------------------------------
then play the chorus and then verse with distortion, then the chorus again,

then
e----------------------------------------------------------------------------
b----------------------------------------------------------------------------
g--5---------------------------5-5-5-------------------------5---------------
d--5---------------------------5-5-5-------------------------5---------------
a--3---------------------------3-3-3-------------------------3---------------
e----------------------------------------------------------------------------

END
e----------------------------------------------------------------------------
b----------------------------------------------------------------------------
g--5-------------------------------------------------------------------------
d--5-------------------------------------------------------------------------
a--3-------------------------------------------------------------------------
e----------------------------------------------------------------------------


__________________________________________________________

Spank Thru
__________________________________________________________

TUNING:

Standard

INTRO
e-------------------------------------0--------------------------------------
b-----------------------3-3-3----------------------0---0---------------------
g-2----2--2-2-0---0-0-0-2-2-2-0--2--2-2--2-2-------0---0---------------------
d-2--2-2--2-2-0---0-0-0-0-0-0-0--2--2-2--2-2-0-0---0---0---------------------
a-0--0-0--0-0-0-------0-------0--0--0-0--0-0-0-------------------------------
e-------------0-3-3-3-0-------0--------------0-3---3---3-2-0-----------------
let ring

VERSE RIFF
e----------------------------------------------------------------------------
b-----------------------3-3-3----------------------0-------------------------
g-2----2--2-2-0-----0---2-2-2-0--2--2-2--2-2-------0-------------------------
d-2--2-2--2-2-0---0-0-0-0-0-0-0--2--2-2--2-2---0---0---0---------------------
a-0--0------0-0-------0-------0--0--0----0-0-0-------------------------------
e---------------3-3-3-0----------------------0-3---3---3-2-0-----------------
PM.. PM. PM.. PM

CHORUS
e-2--2--2--2-2---------------------------------------------------------------
b-3--3--3--3-3-----2--2--2-2-2-----------------------------------------------
g-2--2--2--2-2-----2--2--2-2-2-0--------3--3------------5-----5-0------------
d-0--0--0--0-0-0---2--2--2-2-2-0--------3--3---3--------5-----5-0------------
a--------------0---0--0--0-0-0-0---3----3--3-3-3---5--5-5---5-5-0------------
e------------------------------0---1--1-1--1-1-1---3--3-3---3-3-0------------

e-2--2--2--2-2---------------------------------------------------------------
b-3--3--3--3-3-----2--2--2-2-2-----------------------------------------------
g-2--2--2--2-2-----2--2--2-2-2-0---------------------------------------------
d-0--0--0--0-0-0---2--2--2-2-2-0---3-----------------------5-5-5-5-----------
a--------------0---0--0--0-0-0-0---3---------------5-5-5-5-5-5-5-5-----------
e------------------------------0---1---------------3-3-3-3-3-3-3-3-----------
PM..............
e-------0-0-0-0--------------------------------------------------------------
b-------0-0-0-0--------------------------------------------------------------
g-----------------0----------------------------------------------------------
d---5-5-5-5-5-5-5-0----------------------------------------------------------
a---5-5-5-5-5-5-5-0----------------------------------------------------------
e---3-3-3-3-3-3-3-0----------------------------------------------------------


HEAVY VERSE RIFF
e----------------------------------------------------------------------------
b----------------------------------------------------------------------------
g------------5---------------------------------------------------------------
d----0-------5---0-----------------------------------------------------------
a-2--0--5----5---0-----------------------------------------------------------
e-0-----3------3-------------------------------------------------------------

HEAVY CHORUS
e----------------------------------------------------------------------------
b--------------3----3-3-3-----------------------3----3-3---------------------
g-4--4-4-4-3-2-2----2-2-2-2-2-2-3--4--4-4-4-3-2-2----2-2-----2-2-3-----------
d-4--4-4-4-3-2-0----0-0-0-2-2-2-3--4--4-4-4-3-2-0----0-0-----2-2-3-----------
a-2--2-2-2-1-0------------0-0-0-1--2--2-2-2-1-0--------------0-0-1-----------
e----------------------------------------------------------------------------

e----------------------------------------------------------------------------
b--------------3----3-3-3----------------------------------------------------
g-4--4-4-4-3-2-2----2-2-2-2-2-2-3--4--4-4--4-4-4-----------------------------
d-4--4-4-4-3-2-0----0-0-0-2-2-2-3--4--4-4--4-4-4-------5-0-----3-0-----------
a-2--2-2-2-1-0------------0-0-0-1--2--2-2--2-2-2---5-5-----3-3---0-----------
e--------------------------------------------------3-3-----1-1---------------
PM.. PM.
AFTER 2ND HEAVY CHORUS
e----------------------------------------------------------------------------
b----------------------------------------------------------------------------
g----------------------------------------------------------------------------
d-2--------------------------------------------------------------------------
a-2--------------------------------------------------------------------------
e-0---/----------------------------------------------------------------------

Then go to solo which is an improvised anti-solo.
Just bend everything around the 12th fret...


__________________________________________________________

Scentless Apprentice
___________________________________________________________

TUNING:
Drop D tuned down 1/2 step

INTRO/CHORUS
e-0--0--1--1--2-2-2-2-3-/----------------------------------------------------
b-0--0--0--0--0-0-0-0-0------------------------------------------------------
g-0--0--0--0--0-0-0-0-0------------------------------------------------------
d----------------------------------------------------------------------------
a----------------------------------------------------------------------------
e----------------------------------------------------------------------------
w/echo effect

MAIN RIFF
e----------------------------------------------------------------------------
b----------------------------------------------------------------------------
g----------------------------------------------------------------------------
d-4--4--X-4--0-4-4-4-4-X-4--0------------------------------------------------
a-4--4--X-4--0-4-4-4-4-X-4--0------------------------------------------------
e-4--4--X-4--0-4-4-4-4-X-4--0------------------------------------------------
w/echo effect OFF bend and pick troughout the bar

VERSE BEND
e----------------------------------------------------------------------------
b----------------------------------------------------------------------------
g-8gb9==8=8=8=8=8=8=8=8=8=8=8=8=8-0------------------------------------------
d---------------------------------0------------------------------------------
a---------------------------------0------------------------------------------
e----------------------------------------------------------------------------
w/echo effect

PRE-CHORUS
e----------------------------------------------------------------------------
b----------------------------------------------------------------------------
g----------------------------------------------------------------------------
d----------------------------------------------------------------------------
a-3-3-3-3-3--3-3-3/5-5-5-5--5-5---5/7-7-7-7--7-7-7/8-8-8-8--8-8--------------
e----------------------------------------------------------------------------
w/echo effect

e----------------------------------------------------------------------------
b----------------------------------------------------------------------------
g----------------------------------------------------------------------------
d----------------------------------------------------------------------------
a-8/10-10-10-10--10-10-10/12-12-12-12/15-15-15---15\12-12-12-12--12-12-------
e----------------------------------------------------------------------------

e----------------------------------------------------------------------------
b-0-0-0-0-0-0-0-0-0----------------------------------------------------------
g-0-0-0-0-0-0-0-0-0----------------------------------------------------------
d-0-0-0-0-0-0-0-0-0----------------------------------------------------------
a-0-0-0-0-0-0-0-0-0----------------------------------------------------------
e----------------------------------------------------------------------------

The solo is just improvised noise. 
Do bends high up the neck on the low and high strings.
Use some kind of effect on it.


__________________________________________________________

Heart Shaped Box
___________________________________________________________

TUNING:

Drop D 1/2 step down


INTRO/VERSE
e----------------------------------------------------------------------------
b----------------------------------------------------------------------------
g-----2------------------------------2---------------------------------------
d---2---2-----3----------0-------2-2---2-----3------/4-4---4----0------------
a-0---------3---3----0-------0---0---------3---3-------------3-3-------------
e---------3--------0---0---0---0---------3--------0------0-------------------

LAST TIME BEFORE CHORUS
e----------------------------------------------------------------------------
b----------------------------------------------------------------------------
g-----2------------------------------2---------------------------------------
d---2---2-----3----------0---------2---2-----3------4-4-4-4-4---0------------
a-0---------3---3----0-------0---0---------3---3--------------3-0------------
e---------3--------0---0---0---0---------3--------0--------------------------
w/dist.
CHORUS (3 times) 
e----------------------------------------------------------------------------
b----------------------------------------------------------------------------
g-2-2-4b5-----4b5------------*-4b5-------------------------------------------
d-2-2-----3-3--------4-4-4-4-------------------------------------------------
a-0-0-----3-3----------------3-----------------------------------------------
e---------3-3------0---------------------------------------------------------
let ring

LAST PART OF CHORUS
e----------------------------------------------------------------------------
b----------------------------------------------------------------------------
g--------------------------4b5=5=5r4----------------------------------0------
d-3-3-3-3-3-3-3-3---0-----------------3-3-3-3-3-3-3-3-----4-4-4-4-----0------
a-3-3-3-3-3-3-3-3---0-----------------3-3-3-3-3-3-3-3-------------3-3-0------
e-3-3-3-3-3-3-3-3---0-----------------3-3-3-3-3-3-3-3---0--------------------

SOLO
e----------------------------------------------------------------------------
b------8b10r8\6-----6b8r6\5--------5b6-r5-3-1-0------------------------------
g----------------------------------------------------------------------------
d-7-7-----------5-5------------3-3-------------------------------------------
a----------------------------------------------------------------------------
e----------------------------------------------------------------------------
w/chorus

e----------------------------------------------------------------------------
b----------------------------------------------------------------------------
g-------------------------2--------------------------------------------------
d-2-----------------------2--------------------------------------------------
a-0-----------------------0--------------------------------------------------
e----------------------------------------------------------------------------
dist. off (chorus off for 3rd verse)

ENDING OF LAST CHORUS
e----------------------------------------------------------------------------
b----------------------------------------------------------------------------
g--------------------------4b5=5=5r4-----------------------------------------
d-3-3-3-3-3-3-3-3---0--------------------------------------------------------
a-3-3-3-3-3-3-3-3---0--------------------------------------------------------
e-3-3-3-3-3-3-3-3---0--------------------------------------------------------

e----------------------------------------------------------------------------
b----------------------------------------------------------------------------
g----------------------------------------------------------------------------
d-3-3-3-3-3-3-3-3-----4-4-4-4------------------------------------------------
a-3-3-3-3-3-3-3-3-------------3-3-3------------------------------------------
e-3-3-3-3-3-3-3-3---0--------------------------------------------------------


_____________________________________________________________

Milk It
___________________________________________________________

TUNING:

Standard dropped down 1/2 step

The song starts with two guitars playing improvised licks on the high strings
and quite high on the neck. No need for tabbing...but remember that even that
improvised lick has a certain rhythm. Listen to it carefully. The same 
applies for the "guitar solo".

CHORUS/INTRO 
e----------------------------------------------------------------------------
b----------------------------------------------------------------------------
g-------9-9--------------------------------9-9-------------------------------
d-8-8-8-9-9-5-5-----5-5-5-6-6---2----8-8-8-9-9-5-5-----5---------------------
a-8-8-8-7-7-5-5-----5-5-5-6-6---2-0--8-8-8-7-7-5-5-----5---------------------
e-6-6-6-----3-3-0---3-3-3-4-4-0-0-0--6-6-6-----3-3-0---3---------------------

e----------------------------------------------------------------------------
b----------------------------------------------------------------------------
g-------9-9------------------------------------------------------------------
d-8-8-8-9-9-5-5--------------------------------------------------------------
a-8-8-8-7-7-5-5--------------------------------------------------------------
e-6-6-6-----3-3-0---3--3-4-4b-0-0-0------------------------------------------

CHORUS("Look on the bright side...") 
e----------------------------------------------------------------------------
b----------------------------------------------------------------------------
g-------9-9------------------------------------------------------------------
d-8-8-8-9-9-5-5-----5-5-5-6-6---2--------------------------------------------
a-8-8-8-7-7-5-5-----5-5-5-6-6---2-0------------------------------------------
e-6-6-6-----3-3-0---3-3-3-4-4-0-0-0------------------------------------------

PRE-VERSE RIFF
e-------------------------------3--------------------------------------------
b----------------------------------------------------------------------------
g----------------------------3-----------------------------------------------
d----------------------------------------------------------------------------
a----------------------------------------------------------------------------
e-6-6-6-6-6-6-6-6---0-0-0-0--------------------------------------------------

VERSE
e----------------------------------------------------------------------------
b----------------------------------------------------------------------------
g----------------------------------------------------------------------------
d----------------------------------------------------------------------------
a----------------------------------------------------------------------------
e-6-6-6-6-6-6-6-6---0-0-0-0-0-0-0-0------------------------------------------


________________________________________________________


Negative Creep 

______________________________________________________

TUNING: 

Tune down to drop D

INTRO
e----------------------------------------------------------------------------
b----------------------------------------------------------------------------
g----------------------------------------------------------------------------
d----------------------------------------------------------------------------
a----------------------------------------------------------------------------
e--0--0--/12--0--0--0--0-12\--0--0--/12--0--0--0--0-12\----------------------

e----------------------------------------------------------------------------
b----------------------------------------------------------------------------
g----------------------------------------------------------------------------
d----------------------------------------------------------------------------
a----------------------------------------------------------------------------
e--0--0--/12--0--0--0--0-12\--0--0--/12--0--0--0--0-12\----------------------
play that 2 times, then

VERSE
e----------------------------------------------------------------------------
b----------------------------------------------------------------------------
g----------------------------------------------------------------------------
d----------------------------------------------------------------------------
a----------------------------------------------------------------------------
e--0--0--/12--0--0--0--0-12\--0--0--/12--0--0--0--0-12\----------------------

e----------------------------------------------------------------------------
b----------------------------------------------------------------------------
g----------------------------------------------------------------------------
d----------------------------------------------------------------------------
a--------------------------)~~~----------------------------------------------
e--0--0--/12--0--0--0--0--5--------------------------------------------------

e----------------------------------------------------------------------------
b----------------------------------------------------------------------------
g----------------------------------------------------------------------------
d----------------------------------------------------------------------------
a----------------------------------------------------------------------------
e--0--0--/12--0--0--0--0-12\--0--0--/12--0--0--0--0-12\----------------------

e----------------------------------------------------------------------------
b----------------------------------------------------------------------------
g----------------------------------------------------------------------------
d---------------------------)~~----------------------------------------------
a-------------------------14-------------------------------------------------
e--0--0--/12--0--0--0--0-----------------------------------------------------

e----------------------------------------------------------------------------
b----------------------------------------------------------------------------
g----------------------------------------------------------------------------
d----------------------------------------------------------------------------
a----------------------------------------------------------------------------
e--0--0--/12--0--0--0--0-12\--0--0--/12--0--0--0--0-12\----------------------

e----------------------------------------------------------------------------
b----------------------------------------------------------------------------
g----------------------------------------------------------------------------
d----------------------------------------------------------------------------
a--------------------------)~~~----------------------------------------------
e--0--0--/12--0--0--0--0--3--------------------------------------------------

e----------------------------------------------------------------------------
b----------------------------------------------------------------------------
g----------------------------------------------------------------------------
d----------------------------------------------------------------------------
a----------------------------------------------------------------------------
e--0--0--/12--0--0--0--0-12\--0--0--/12--0--0--0--0-12\----------------------

e----------------------------------------------------------------------------
b----------------------------------------------------------------------------
g----------------------------------------------------------------------------
d----------------------------------------------------------------------------
a----------------------------------------------------------------------------
e--0--0--/12--0--0--0--0--0--------------------------------------------------

CHORUS
e----------------------------------------------------------------------------
b----------------------------------------------------------------------------
g----------------------------------------------------------------------------
d----------------------------------------------------------------------------
a--7--7--5--4--4--4-0--7--7--5--8--8--5--0-----------------------------------
e-----------4--4--4-0--7--7--------------------------------------------------
play that 8 times.


__________________________________________________________

Polly
_______________________________________________________

TUNING: 

Normal tuning

INTRO
e----------------------------------------------------------------------------
b----------------------------------------------------------------------------
g-----------------------7--7--x--5--5--5-------------------------------------
d--2--x--0--5--5--x--0--7--7--x--5--5--5--0----------------------------------
a--2--x--0--5--5--x--0--5--5--x--3--3--3--0----------------------------------
e--0--x--0--3--3--x----------------------------------------------------------
play that 2 times

VERSE
e----------------------------------------------------------------------------
b----------------------------------------------------------------------------
g-----------------------7--7--x--5--5--5-------------------------------------
d--2--2--0--5--5--x--0--7--7--x--5--5--5--0--2--x--0--5--5--x--0-------------
a--2--2--0--5--5--x--0--5--5--x--3--3--3--0--2--x--0--5--5--x--0-------------
e--0--0--0--3--3--x--------------------------0--x--0--3--3--x----------------

e----------------------------------------------------------------------------
b----------------------------------------------------------------------------
g--7--7--x--5--5--5----------------------------------------------------------
d--7--7--x--5--5--5--0-------------------------------------------------------
a--5--5--x--3--3--3--0-------------------------------------------------------
e----------------------------------------------------------------------------
play that 2 times

CHORUS
e----------------------------------------------------------------------------
b----------------------------------------------------------------------------
g--7--x--5--5--5----------------------------7--7--x--5--5--5-----------------
d--7--x--5--5--5--0--5--5--x--8--8--8--x-x--7--7--x--5--5--5--0--------------
a--5--x--3--3--3--0--5--5--x--8--8--8--x-x--5--5--x--3--3--3--0--------------
e--------------------3--3--x--6--6--6--x-x-----------------------------------

e----------------------------------------------------------------------------
b----------------------------------------------------------------------------
g-----------------------7--7--x--5----5--5-----------------------------------
d--5--5--x--8--8--8--0--7--7--x--5----5--5--0--5--5--x--8--8--8--x-x---------
a--5--5--x--8--8--8--0--5--5--x--3-3--3--3--0--5--5--x--8--8--8--x-x---------
e--3--3--x--6--6--6--0-------------------------3--3--x--6--6--6--x-x---------

e----------------------------------------------------------------------------
b----------------------------------------------------------------------------
g--7--7--x--5--5--5----------------------------------------------------------
d--7--7--x--5--5--5--0--5--5--x--8----8--8--x-x------------------------------
a--5--5--x--3--3--3--0--5--5--x--8----8--8--x-x------------------------------
e-----------------------3--3--x--6-6--6--6--x-x------------------------------

e----------------------------------------------------------------------------
b----------------------------------------------------------------------------
g--7--7--x--5--5--5--------------------------7--7--x--5--5--5----------------
d--7--7--x--5--5--5--0--5--5--x--8--8--8--0--7--7--x--5--5--5--0-------------
a--5--5--x--3--3--3--0--5--5--x--8--8--8--0--5--5--x--3--3--3--0-------------
e-----------------------3--3--x--6--6--6--0----------------------------------

e----------------------------------------------------------------------------
b----------------------------------------------------------------------------
g-----------------------7--7--x--5--5--5-------------------------------------
d--5--5--x--8--8--8--0--7--7--x--5--5--5--0--5--5--x--8--8--8--0-------------
a--5--5--x--8--8--8--0--5--5--x--3--3--3--0--5--5--x--8--8--8--0-------------
e--3--3--x--6--6--6--0-----------------------3--3--x--6--6--6--0-------------

e----------------------------------------------------------------------------
b----------------------------------------------------------------------------
g--7--7--x--5--5--5----------------------------------------------------------
d--7--7--x--5--5--5--0--5--5--x--8--8--8--0----------------------------------
a--5--5--x--3--3--3--0--5--5--x--8--8--8--0----------------------------------
e-----------------------3--3--x--6--6--6--0----------------------------------

VERSE
e----------------------------------------------------------------------------
b----------------------------------------------------------------------------
g-----------------------7--7--x--5--5--5-------------------------------------
d--2--x--0--5--5--x--0--7--7--x--5--5--5--0----------------------------------
a--2--x--0--5--5--x--0--5--5--x--3--3--3--0----------------------------------
e--0--x--0--3--3--x----------------------------------------------------------

play that 6 times
then after 2nd time chorus is played
e----------------------------------------------------------------------------
b----------------------------------------------------------------------------
g----------------------------------------------------------------------------
d--2-------------------------------------------------------------------------
a--2-------------------------------------------------------------------------
e--0-------------------------------------------------------------------------

END
e----------------------------------------------------------------------------
b----------------------------------------------------------------------------
g----------------------------------------------------------------------------
d--2-------------------------------------------------------------------------
a--2-------------------------------------------------------------------------
e--0-------------------------------------------------------------------------


________________________________________________________

Breed
______________________________________________________

TUNING: 

Normal tuning

INTRO
(this is actually a studio effect, but when played live, kurt tap





Comments


Popular Nirvana tabs & chords
Laminated Effect 1 Bass Tabs
Molly's Lips Chords
On A Plain Chords
I Hate Myself And Want To Die Drum Tabs
Lounge Act 1 Drum Tabs
Pennyroyal Tea 1 Drum Tabs
Bambi Slaughter (Intro) Tabs
Mexican Seafood Tabs
Opinion Heavy Version Tabs
Smells Like Teen Spirit Correct Tabs


Song lyrics



↑ Back to top | Tablatures and chords are parodies/interpretations of the original songs. You may use it for private study, scholarship, research or language learning purposes only
© 2014 AZChords.com Contact us | Privacy policy | DMCA | Add/correct tabs | Request tabs | Top 50 tabs