» » »

Nirvana, Freebird Tabs (ver.2)

Artists:  A B C D E F G H I J K L M N O P Q R S T U V W X Y Z # 

Freebird Tabs (ver.2)

Nirvana Tabs
 Rating:
4/5 (4 votes)
Freebird lessons Tabs too difficult? Try these video lessons and learn fast
1
                Written by Kurt Cobain BAND = Nirvana Name= freebird  normal tuning (EADGBe)
(This is a very picky kind of song)
 
INTRO

E-------------------------------------------
A---------------------------5-6-5-3-3------- 
D-----------2-2-3-3----------------2-2------
G--------3-------2-2-3-3------------1-1-----
B------2---------1-1---2-2-------------------
e----1---------------------1-1-----------------

When Kurt shouts Freebird! And the audience laugh, You play

E------------------------------------------------------------------------------------
A--------2-2------------------------------------------------------------------------
D-------------------4-----------------3-4-3---------3-3---3-3-----4-4------------
G-------------3-3----3-3-----------------4-------2--------2-----------------1------
B------------2-2--------2-2-----------------3----------------------------------2----
e-----------1-1------------1-1----------------------------------------------------3---

OUTRO


E---------------------------------------------------------
A---------------------------------------------------------
D----------------------------------------------------------
G---------1------5-4-3-2------4-4-4------------------------
B-----------2----------------3---------3-------------------
e---2-3-3----3----------------------------------------------
            
Submit corrections

comments powered by Disqus
↑ Back to top | Nirvana Tabs for Freebird. Lyrics for acoustic guitar and electric guitar. 1 Tablatures and chords are parodies/interpretations of the original songs. You may use it for private study, scholarship, research or language learning purposes only