>
 >
Frances Farmer Will Have Her Revenge Onseattle

Frances Farmer Will Have Her Revenge Onseattle Guitar Tabs

Nirvana - Frances Farmer Will Have Her Revenge Onseattle chords, tabs, tablatures, lyrics

Guitar lessons | Add/correct | Request | Top 50 tabs Artists:  A B C D E F G H I J K L M N O P Q R S T U V W X Y Z 0-9

Frances Farmer Will Have Her Revenge Onseattle Guitar Tabs – Nirvana

CD, Sheet music, Poster

Do you like Frances Farmer Will Have Her Revenge Onseattle? Share with your friends now
Tabs
---------------Frances Farmer Will Have Her Revenge OnSeattle----------------
                              by NIRVANA

INTRO:


e|-----------------------------------------------------------------------|
B|-----------------------------------------------------------------------|
G|-----------------------------------------------------------------------|
D|-5-5-5-5-5-5-5-5\-2-2-2-2/-5-5-5-5\-2-2-2-2/-5-5-5-5/-6-6-6-6-6-6-6-6\-|
A|-5-5-5-5-5-5-5-5\-2-2-2-2/-5-5-5-5\-2-2-2-2/-5-5-5-5/-6-6-6-6-6-6-6-6\-|
E|-3-3-3-3-3-3-3-3\-0-0-0-0/-3-3-3-3\-0-0-0-0/-3-3-3-3/-4-4-4-4-4-4-4-4\-|
   . . . . . . . .  . . . .  . . . .  . . . .  . . . .  . . . . . . . . 

e|------------------------------------------------------------------------|
B|------------------------------------------------------------------------|
G|------------------------------------------------------------------------|
D|-3-3-3-3/-6-6-6-6\-3-3-3-3/-6-6-6-6--7--7--7--7--7--7--7--7--\--6--\-5--|
A|-3-3-3-3/-6-6-6-6\-3-3-3-3/-6-6-6-6--7--7--7--7--7--7--7--7--\--6--\-5--|
E|-1-1-1-1/-4-4-4-4\-1-1-1-1/-4-4-4-4--5--5--5--5--5--5--5--5--\--4--\-3--|
   . . . .  . . . .  . . . .  . . . .  

VERSE:


e|------------------------------------------------------------------------|
B|------------------------------------------------------------------------|
G|------------------------------------------------------------------------|
D|-5-5-5-5-5-5-5-5\-2-2-2-2/-5-5-5-5\-2-2-2-2/-5-5-5-5/-7--7--7--7--7--7--|
A|-5-5-5-5-5-5-5-5\-2-2-2-2/-5-5-5-5\-2-2-2-2/-5-5-5-5/-7--7--7--7--7--7--|
E|-3-3-3-3-3-3-3-3\-0-0-0-0/-3-3-3-3\-0-0-0-0/-3-3-3-3/-5--5--5--5--5--5--|
   . . . . . . . .  . . . .  . . . .  . . . .  . . . . 

e|------------------------------------------------------------------------|
B|------------------------------------------------------------------------|
G|------------------------------------------------------------------------|
D|-7--7--\--6--\-5--6-6-6-6-6-6-6-6\3-3-3-3/-6-6-6-6\-3-3-3-3/-6-6-6-6--7-|
A|-7--7--\--6--\-5--6-6-6-6-6-6-6-6\3-3-3-3/-6-6-6-6\-3-3-3-3/-6-6-6-6--7-|
E|-5--5--\--4--\-3--4-4-4-4-4-4-4-4\1-1-1-1/-4-4-4-4\-1-1-1-1/-4-4-4-4--5-|
                    . . . . . . . . . . . .  . . . .  . . . .  . . . .

e|------------------------------------------------------------------------|
B|------------------------------------------------------------------------|
G|------------------------------------------------------------------------|
D|-7--7--7--7--7--7--7--8-8/9-9/10-10/11-11~~--11-11-11-11~~-11-11-11\--7-|
A|-7--7--7--7--7--7--7--8-8/9-9/10-10/11-11~~--11-11-11-11~~-11-11-11\--7-|
E|-5--5--5--5--5--5--5--6-6/7-7/-8--8/-9--9~~---9--9--9--9~~--9--9--9\--5-|


e|---------------------|
B|---------------------|
G|---------------------|
D|-7--7--7--7--7--7--7-|
A|-7--7--7--7--7--7--7-|
E|-5--5--5--5--5--5--5-|


CHORUS:

e|------------------------------------------------------------------------|
B|------------------------------------------------------------------------|
G|------------------------------------------------------------------------|
D|-10-10-10-10-10-10-10-10-10-10-10-10-10-10-10-10\8-8-8-8-8-8-8-8-8-8-8-8|
A|-10-10-10-10-10-10-10-10-10-10-10-10-10-10-10-10\8-8-8-8-8-8-8-8-8-8-8-8|
E|--8--8--8--8--8--8--8--8--8--8--8--8--8--8--8--8\6-6-6-6-6-6-6-6-6-6-6-6|


e|------------------------------------------------------------------------|
B|------------------------------------------------------------------------|
G|------------------------------------------------------------------------|
D|-8-8-8-8/10-10-10-10-10-10-10-10-10-10-10-10-10-10-10-10\8-8-8-8-8-8-8-8|
A|-8-8-8-8/10-10-10-10-10-10-10-10-10-10-10-10-10-10-10-10\8-8-8-8-8-8-8-8|
E|-6-6-6-6/-8--8--8--8--8--8--8--8--8--8--8--8--8--8--8--8\6-6-6-6-6-6-6-6|


e|------------------------------------------------------------------------|
B|------------------------------------------------------------------------|
G|------------------------------------------------------------------------|
D|-8-8-8-8-8-8-8-8/10-10-10-10-10-10-10-10-10-10-10-10-10-10-10-10\8-8-8-8|
A|-8-8-8-8-8-8-8-8/10-10-10-10-10-10-10-10-10-10-10-10-10-10-10-10\8-8-8-8|
E|-6-6-6-6-6-6-6-6/-8--8--8--8--8--8--8--8--8--8--8--8--8--8--8--8\6-6-6-6|


e|------------------------------------------------------------------------|
B|------------------------------------------------------------------------|
G|------------------------------------------------------------------------|
D|-8-8-8-8/7-7-7-7-7-7-7-7/5-5-5-5-5-5-5-5/4-4-4-4-4-4-4-4/3-3-3-3-3-3-3-3|
A|-8-8-8-8/7-7-7-7-7-7-7-7/5-5-5-5-5-5-5-5/4-4-4-4-4-4-4-4/3-3-3-3-3-3-3-3|
E|-6-6-6-6/5-5-5-5-5-5-5-5/3-3-3-3-3-3-3-3/2-2-2-2-2-2-2-2/1-1-1-1-1-1-1-1|



VERSE:


e|------------------------------------------------------------------------|
B|------------------------------------------------------------------------|
G|------------------------------------------------------------------------|
D|-5-5-5-5-5-5-5-5\-2-2-2-2/-5-5-5-5\-2-2-2-2/-5-5-5-5/-7--7--7--7--7--7--|
A|-5-5-5-5-5-5-5-5\-2-2-2-2/-5-5-5-5\-2-2-2-2/-5-5-5-5/-7--7--7--7--7--7--|
E|-3-3-3-3-3-3-3-3\-0-0-0-0/-3-3-3-3\-0-0-0-0/-3-3-3-3/-5--5--5--5--5--5--|
   . . . . . . . .  . . . .  . . . .  . . . .  . . . . 

e|------------------------------------------------------------------------|
B|------------------------------------------------------------------------|
G|------------------------------------------------------------------------|
D|-7--7--\--6--\-5--6-6-6-6-6-6-6-6\3-3-3-3/-6-6-6-6\-3-3-3-3/-6-6-6-6--7-|
A|-7--7--\--6--\-5--6-6-6-6-6-6-6-6\3-3-3-3/-6-6-6-6\-3-3-3-3/-6-6-6-6--7-|
E|-5--5--\--4--\-3--4-4-4-4-4-4-4-4\1-1-1-1/-4-4-4-4\-1-1-1-1/-4-4-4-4--5-|
                    . . . . . . . . . . . .  . . . .  . . . .  . . . . 

e|------------------------------------------------------------------------|
B|------------------------------------------------------------------------|
G|------------------------------------------------------------------------|
D|-7--7--7--7--7--7--7--6-6-6-6-6-6-6-6\3-3-3-3/-6-6-6-6\-3-3-3-3/-6-6-6-6|
A|-7--7--7--7--7--7--7--6-6-6-6-6-6-6-6\3-3-3-3/-6-6-6-6\-3-3-3-3/-6-6-6-6|
E|-5--5--5--5--5--5--5--4-4-4-4-4-4-4-4\1-1-1-1/-4-4-4-4\-1-1-1-1/-4-4-4-4|
                        . . . . . . . . . . . .  . . . .  . . . .  . . . . 

e|------------------------|
B|------------------------|
G|------------------------|
D|-7--7--7--7--7--7--7--7-|
A|-7--7--7--7--7--7--7--7-|
E|-5--5--5--5--5--5--5--5-|


CHORUS:

e|------------------------------------------------------------------------|
B|------------------------------------------------------------------------|
G|------------------------------------------------------------------------|
D|-10-10-10-10-10-10-10-10-10-10-10-10-10-10-10-10\8-8-8-8-8-8-8-8-8-8-8-8|
A|-10-10-10-10-10-10-10-10-10-10-10-10-10-10-10-10\8-8-8-8-8-8-8-8-8-8-8-8|
E|--8--8--8--8--8--8--8--8--8--8--8--8--8--8--8--8\6-6-6-6-6-6-6-6-6-6-6-6|


e|------------------------------------------------------------------------|
B|------------------------------------------------------------------------|
G|------------------------------------------------------------------------|
D|-8-8-8-8/10-10-10-10-10-10-10-10-10-10-10-10-10-10-10-10\8-8-8-8-8-8-8-8|
A|-8-8-8-8/10-10-10-10-10-10-10-10-10-10-10-10-10-10-10-10\8-8-8-8-8-8-8-8|
E|-6-6-6-6/-8--8--8--8--8--8--8--8--8--8--8--8--8--8--8--8\6-6-6-6-6-6-6-6|


e|------------------------------------------------------------------------|
B|------------------------------------------------------------------------|
G|------------------------------------------------------------------------|
D|-8-8-8-8-8-8-8-8/10-10-10-10-10-10-10-10-10-10-10-10-10-10-10-10\8-8-8-8|
A|-8-8-8-8-8-8-8-8/10-10-10-10-10-10-10-10-10-10-10-10-10-10-10-10\8-8-8-8|
E|-6-6-6-6-6-6-6-6/-8--8--8--8--8--8--8--8--8--8--8--8--8--8--8--8\6-6-6-6|


e|------------------------------------------------------------------------|
B|------------------------------------------------------------------------|
G|------------------------------------------------------------------------|
D|-8-8-8-8/7-7-7-7-7-7-7-7/5-5-5-5-5-5-5-5/4-4-4-4-4-4-4-4/3-3-3-3-3-3-3-3|
A|-8-8-8-8/7-7-7-7-7-7-7-7/5-5-5-5-5-5-5-5/4-4-4-4-4-4-4-4/3-3-3-3-3-3-3-3|
E|-6-6-6-6/5-5-5-5-5-5-5-5/3-3-3-3-3-3-3-3/2-2-2-2-2-2-2-2/1-1-1-1-1-1-1-1|


SOLO:

e|------------------------------------------------------------------------|
B|------------------------------------------------------------------------|
G|--------6--6-6-6---------6--6-6-6---------6--6-6-6----------------------|
D|-5-5-5--6--6-6-6--5-5-5--6--6-6-6--5-5-5--6--6-6-6--7--7--7--7-7-/6-6/5-|
A|-5-5-5--4--4-4-4--5-5-5--4--4-4-4--5-5-5--4--4-4-4--7--7--7--7-7-/6-6/5-|
E|-3-3-3------------3-3-3------------3-3-3------------5--5--5--5-5-/4-4/3-|


e|------------------------------------------------------------------------|
B|------------------------------------------------------------------------|
G|--------------6--6-6-6---------6--6-6-6---------6--6-6-6----------------|
D|5/3-3--5-5-5--6--6-6-6--5-5-5--6--6-6-6--5-5-5--6--6-6-6--7--7--7--7-7/-|
A|5/3-3--5-5-5--4--4-4-4--5-5-5--4--4-4-4--5-5-5--4--4-4-4--7--7--7--7-7/-|
E|3/1-1--3-3-3------------3-3-3------------3-3-3------------5--5--5--5-5/-|


e|-------------------------------------------------------------------------|
B|-------------------------------------------------------------------------|
G|--------------------6--6-6-6---------6--6-6-6---------6--6-6-6-----------|
D|6-6/5-5/3-3--5-5-5--6--6-6-6--5-5-5--6--6-6-6--5-5-5--6--6-6-6--7--7--7--|
A|6-6/5-5/3-3--5-5-5--4--4-4-4--5-5-5--4--4-4-4--5-5-5--4--4-4-4--7--7--7--|
E|4-4/3-3/1-1--3-3-3------------3-3-3------------3-3-3------------5--5--5--|


e|-------------------------------------------------------------------------|
B|-------------------------------------------------------------------------|
G|-------------------------------------------------------------------------|
D|7-7/6-6/5-5/3-3--5-7-7-7-7-7-7-7-7/-5-5-5-5-5-5-5/4--4-4-4-4-4-4-4/-3-3-3|
A|7-7/6-6/5-5/3-3--5-7-7-7-7-7-7-7-7/-5-5-5-5-5-5-5/4--4-4-4-4-4-4-4/-3-3-3|
E|5-5/4-4/3-3/1-1--3-5-5-5-5-5-5-5-5/-3-3-3-3-3-3-3/2--2-2-2-2-2-2-2/-1-1-1|


e|------------------------------------------------------------------------|
B|------------------------------------------------------------------------|
G|------------------------------------------------------------------------|
D|3-3-3-3-3---------------------------------------------------------------|
A|3-3-3-3-3---------------------------------------------------------------|
E|1-1-1-1-1---------------------------------------------------------------|


CHORUS:

e|------------------------------------------------------------------------|
B|------------------------------------------------------------------------|
G|------------------------------------------------------------------------|
D|-10-10-10-10-10-10-10-10-10-10-10-10-10-10-10-10\8-8-8-8-8-8-8-8-8-8-8-8|
A|-10-10-10-10-10-10-10-10-10-10-10-10-10-10-10-10\8-8-8-8-8-8-8-8-8-8-8-8|
E|--8--8--8--8--8--8--8--8--8--8--8--8--8--8--8--8\6-6-6-6-6-6-6-6-6-6-6-6|


e|------------------------------------------------------------------------|
B|------------------------------------------------------------------------|
G|------------------------------------------------------------------------|
D|-8-8-8-8/10-10-10-10-10-10-10-10-10-10-10-10-10-10-10-10\8-8-8-8-8-8-8-8|
A|-8-8-8-8/10-10-10-10-10-10-10-10-10-10-10-10-10-10-10-10\8-8-8-8-8-8-8-8|
E|-6-6-6-6/-8--8--8--8--8--8--8--8--8--8--8--8--8--8--8--8\6-6-6-6-6-6-6-6|


e|------------------------------------------------------------------------|
B|------------------------------------------------------------------------|
G|------------------------------------------------------------------------|
D|-8-8-8-8-8-8-8-8/10-10-10-10-10-10-10-10-10-10-10-10-10-10-10-10\8-8-8-8|
A|-8-8-8-8-8-8-8-8/10-10-10-10-10-10-10-10-10-10-10-10-10-10-10-10\8-8-8-8|
E|-6-6-6-6-6-6-6-6/-8--8--8--8--8--8--8--8--8--8--8--8--8--8--8--8\6-6-6-6|


e|------------------------------------------------------------------------|
B|------------------------------------------------------------------------|
G|------------------------------------------------------------------------|
D|-8-8-8-8/7-7-7-7-7-7-7-7/5-5-5-5-5-5-5-5/4-4-4-4-4-4-4-4/3-3-3-3-3-3-3-3|
A|-8-8-8-8/7-7-7-7-7-7-7-7/5-5-5-5-5-5-5-5/4-4-4-4-4-4-4-4/3-3-3-3-3-3-3-3|
E|-6-6-6-6/5-5-5-5-5-5-5-5/3-3-3-3-3-3-3-3/2-2-2-2-2-2-2-2/1-1-1-1-1-1-1-1|



VERSE:


e|------------------------------------------------------------------------|
B|------------------------------------------------------------------------|
G|------------------------------------------------------------------------|
D|-5-5-5-5-5-5-5-5\-2-2-2-2/-5-5-5-5\-2-2-2-2/-5-5-5-5/-7--7--7--7--7--7--|
A|-5-5-5-5-5-5-5-5\-2-2-2-2/-5-5-5-5\-2-2-2-2/-5-5-5-5/-7--7--7--7--7--7--|
E|-3-3-3-3-3-3-3-3\-0-0-0-0/-3-3-3-3\-0-0-0-0/-3-3-3-3/-5--5--5--5--5--5--|
   . . . . . . . .  . . . .  . . . .  . . . .  . . . . 

e|------------------------------------------------------------------------|
B|------------------------------------------------------------------------|
G|------------------------------------------------------------------------|
D|-7--7--\--6--\-5--6-6-6-6-6-6-6-6\3-3-3-3/-6-6-6-6\-3-3-3-3/-6-6-6-6--7-|
A|-7--7--\--6--\-5--6-6-6-6-6-6-6-6\3-3-3-3/-6-6-6-6\-3-3-3-3/-6-6-6-6--7-|
E|-5--5--\--4--\-3--4-4-4-4-4-4-4-4\1-1-1-1/-4-4-4-4\-1-1-1-1/-4-4-4-4--5-|
                    . . . . . . . . . . . .  . . . .  . . . .  . . . .

e|------------------------------------------------------------------------|
B|------------------------------------------------------------------------|
G|------------------------------------------------------------------------|
D|-7--7--7--7--7--7--7--6-6-6-6-6-6-6-6\3-3-3-3/-6-6-6-6\-3-3-3-3/-6-6-6-6|
A|-7--7--7--7--7--7--7--6-6-6-6-6-6-6-6\3-3-3-3/-6-6-6-6\-3-3-3-3/-6-6-6-6|
E|-5--5--5--5--5--5--5--4-4-4-4-4-4-4-4\1-1-1-1/-4-4-4-4\-1-1-1-1/-4-4-4-4|
                        . . . . . . . . . . . .  . . . .  . . . .  . . . . 

e|------------------------|
B|------------------------|
G|------------------------|
D|-7--7--7--7--7--7--7--7-|
A|-7--7--7--7--7--7--7--7-|
E|-5--5--5--5--5--5--5--5-|




CHORUS:

e|------------------------------------------------------------------------|
B|------------------------------------------------------------------------|
G|------------------------------------------------------------------------|
D|-10-10-10-10-10-10-10-10-10-10-10-10-10-10-10-10\8-8-8-8-8-8-8-8-8-8-8-8|
A|-10-10-10-10-10-10-10-10-10-10-10-10-10-10-10-10\8-8-8-8-8-8-8-8-8-8-8-8|
E|--8--8--8--8--8--8--8--8--8--8--8--8--8--8--8--8\6-6-6-6-6-6-6-6-6-6-6-6|


e|------------------------------------------------------------------------|
B|------------------------------------------------------------------------|
G|------------------------------------------------------------------------|
D|-8-8-8-8/10-10-10-10-10-10-10-10-10-10-10-10-10-10-10-10\8-8-8-8-8-8-8-8|
A|-8-8-8-8/10-10-10-10-10-10-10-10-10-10-10-10-10-10-10-10\8-8-8-8-8-8-8-8|
E|-6-6-6-6/-8--8--8--8--8--8--8--8--8--8--8--8--8--8--8--8\6-6-6-6-6-6-6-6|


e|------------------------------------------------------------------------|
B|------------------------------------------------------------------------|
G|------------------------------------------------------------------------|
D|-8-8-8-8-8-8-8-8/10-10-10-10-10-10-10-10-10-10-10-10-10-10-10-10\8-8-8-8|
A|-8-8-8-8-8-8-8-8/10-10-10-10-10-10-10-10-10-10-10-10-10-10-10-10\8-8-8-8|
E|-6-6-6-6-6-6-6-6/-8--8--8--8--8--8--8--8--8--8--8--8--8--8--8--8\6-6-6-6|


e|------------------------------------------------------------------------|
B|------------------------------------------------------------------------|
G|------------------------------------------------------------------------|
D|-8-8-8-8/7-7-7-7-7-7-7-7/5-5-5-5-5-5-5-5/4-4-4-4-4-4-4-4/3-3-3-3-3-3-3-3|
A|-8-8-8-8/7-7-7-7-7-7-7-7/5-5-5-5-5-5-5-5/4-4-4-4-4-4-4-4/3-3-3-3-3-3-3-3|
E|-6-6-6-6/5-5-5-5-5-5-5-5/3-3-3-3-3-3-3-3/2-2-2-2-2-2-2-2/1-1-1-1-1-1-1-1|





Comments


Popular Nirvana tabs & chords
Mr. Moustache 2 Bass Tabs
Plain Chords
Rape Me Drum Tabs
Aero Zeppelin 2 Tabs
Breed 1 Tabs
Do You Love Me? 1 Tabs
Opinion Tabs
Paper Cuts Tabs
Return Of The Rat 2 Tabs
Very Ape 1 Tabs


Song lyrics



↑ Back to top | Tablatures and chords are parodies/interpretations of the original songs. You may use it for private study, scholarship, research or language learning purposes only
© 2014 AZChords.com Contact us | Privacy policy | DMCA | Add/correct tabs | Request tabs | Top 50 tabs