» » »

Nirvana, Formaldehyde Tabs (ver.1)

Artists:  A B C D E F G H I J K L M N O P Q R S T U V W X Y Z # 

Formaldehyde Tabs (ver.1)

Nirvana Tabs
Rating:
0/5 (0 votes)
Formaldehyde lessons Tabs too difficult? Try these video lessons and learn fast
                Artist-Nirvana
Song-Formaldehyde (bull*** Jam)

this is tuned down 1/2 step

Intro
e-------------------------------------------------------
b-------------------------------------------------------
g-------------------------------------------------------        
d---------3-----------3-3-----------3-----------3-3-----
a-------3---3-------3-----3-------3---3-------3-----3---
e—--1-----------1-------------1-----------1------------- play 2x then




e-----------------------------------------------------------
b---7--6--5--4----5--4--3--2---3--2--1--0--0-----0--1--0----
g---------------------------------------------3-----------3-      
d-----------------------------------------------------------
a-----------------------------------------------------------
e-----------------------------------------------------------


e-----------------------------------------------------------
b---4--3--3--2---3--2--1--0---2--1--0--------------0--------
g--------------------------------------3--3--2--3-----3--2--        
d----------------------------------------------------------- 
a-----------------------------------------------------------
e-----------------------------------------------------------


e-----------------------------------------------------------
b---10--9--8---10--9--8--7---8--7--6--5-5--4--5--6--5--4----
g-----------------------------------------------------------       
d----------------------------------------------------------- 
a-----------------------------------------------------------
e-----------------------------------------------------------


e-----------------------------------------------------------
b---9--8--7--6---7--6--5--4---5--4--3--2-2--1--2--3--2--1---
g-----------------------------------------------------------        
d----------------------------------------------------------- 
a-----------------------------------------------------------
e-----------------------------------------------------------

Then repeat the intro after this
            

comments powered by Disqus
↑ Back to top | Nirvana Tabs for Formaldehyde. Lyrics for acoustic guitar and electric guitar. Tablatures and chords are parodies/interpretations of the original songs. You may use it for private study, scholarship, research or language learning purposes only