>
 >
Dumb 4

Dumb 4 Guitar Tabs

Nirvana - Dumb 4 chords, tabs, tablatures, lyrics

Guitar lessons | Add/correct | Request | Top 50 tabs Artists:  A B C D E F G H I J K L M N O P Q R S T U V W X Y Z 0-9

Dumb 4 Guitar Tabs – Nirvana

CD, Sheet music, Poster

Do you like Dumb 4? Share with your friends now
Bass TabsBass Tabs v2Bass Tabs v3Bass Tabs v4ChordsChords v2Chords v3Drum TabsTabsTabs v2Tabs v3Tabs v4UkuleleUkulele v2
-----------------------------------------------------------------------------
			     DUMB - Nirvana
-----------------------------------------------------------------------------

Tuning 1/2 Step Down ( Eb Ab Db Gb Bb eb )


::VERSE ONE::
   E5    A5                     G5  C5
                Im not like them__         but I can  pre-tend__
e|---------------------------|----------------------------------|-
B|---------------------2-----|---------------------------5------|-
G|-------2-------------2-----|------5--------------------5------|-
D|-------2---------2---------|------5--------------5------------|-
A|-2-----------0-------------|--5------------3------------------|-
E|-0--------0-------------0--|--3--------0-------------------0--|-
||E5    A5                     G5  C5
||___          The sun is gone___         but I have   a  light_
e|---------------------------|----------------------------------|-
B|---------------------2-----|---------------------------5------|-
G|-------2-------------2-----|------5--------------------5------|-
D|-------2-----2---2---------|------5--------------5------------|-
A|-2-----------0-------------|--5------------3------------------|-
E|-0--------0-------------0--|--3--------0-------------------0--|-
||E5    A5                     G5  C5
||___         The day is done___            but im  hav-ing fun_
e|---------------------------|----------------------------------|-
B|---------------------2-----|---------------------------5------|-
G|-------2-------------2-----|------5--------------------5------|-
D|-------2---------2---------|------5--------------5------------|-
A|-2-----------0-------------|--5------------3------------------|-
E|-0--------0-------------0--|--3--------0-------------------0--|-
||E5    A5                     G5  C5
||___           I think im dumb__        or may-be just__ happy__
e|---------------------------|----------------------------------|-
B|---------------------2-----|------------------5--5---5---0----|-
G|-------2-------------2-----|------5-----------5--5---5---0----|-
D|-------2---------2---------|------5-----------5--5---5---0----|-
A|-2-----------0-------------|--5------------3--3--3---3---0----|-
E|-0--------0-------------0--|--3--------0----------------------|-


::Chorus::
  Esus4		      G			   E5
  ___                          Think im just happy____
e|------------------|-------3-------3-----|------------------|-
B|-------0----0-----|-------0-------0---0-|-------0----0-----|-
G|----0--0-0--0--0--|-0--0--0-------0---0-|----0--0-0--0--0--|-
D|-2--2--2-2--2--2--|-0--0------0---0---0-|-2--2--2-2--2--2--|-
A|-2--2----2-----2--|-2--2------2-------2-|-2--2----2-----2--|-
E|-0--0----------0--|-3--3------3---------|-0--0----------0--|-
||G                      E5
||          Think im just happy__
e|-------3-------3-----|------------------|-
B|-------0-------0---0-|-------0----0-----|-
G|-0--0--0-------0---0-|----0--0-0--0--0--|-
D|-0--0------0---0---0-|-2--2--2-2--2--2--|-
A|-2--2------2-------2-|-2--2----2-----2--|-
E|-3--3------3---------|-0--0----------0--|-
|| G			 E5
||          Think im just happy__
e|-------3-------3-----|------------------|-
B|-------0-------0---0-|-------0----0-----|-
G|-0--0--0-------0---0-|----0--0-0--0---0-|-
D|-0--0------0---0---0-|-2--2--2-2--2---0-|-
A|-2--2------2-------2-|-2--2----2--2---0-|-
E|-3--3------3---------|-0--0-------0---0-|-
|| G
||
e|-1--1-----------------------------------|-
B|-0--0-----------------------------------|-
G|-0--0-----------------------------------|-
D|-0--0-----------------------------------|-
A|-2--2-----------------------------------|-
E|-3--3--/7--7--5\3-----------------------|-



::VERSE TWO:: 
   E5    A5                     G5  C5
                My heart is broke_         but I have some glue__
e|---------------------------|----------------------------------|-
B|---------------------2-----|---------------------------5------|-
G|-------2-------------2-----|------5--------------------5------|-
D|-------2---------2---------|------5--------------5------------|-
A|-2-----------0-------------|--5------------3------------------|-
E|-0--------0-------------0--|--3--------0-------------------0--|-
||E5    A5                     G5  C5
||___          help me inhale___          mend it with you____
e|---------------------------|----------------------------------|-
B|---------------------2-----|---------------------------5------|-
G|-------2-------------2-----|------5--------------------5------|-
D|-------2-----2---2---------|------5--------------5------------|-
A|-2-----------0-------------|--5------------3------------------|-
E|-0--------0-------------0--|--3--------0-------------------0--|-
||E5    A5                     G5  C5
||___          We float around___            hang out on clouds_
e|---------------------------|----------------------------------|-
B|---------------------2-----|---------------------------5------|-
G|-------2-------------2-----|------5--------------------5------|-
D|-------2---------2---------|------5--------------5------------|-
A|-2-----------0-------------|--5------------3------------------|-
E|-0--------0-------------0--|--3--------0-------------------0--|-
||E5    A5                     G5  C5
||___           Then we'll come down__       Have a hangover____
e|---------------------------|----------------------------------|-
B|---------------------2-----|------------------5--5---5---0----|-
G|-------2-------------2-----|------5-----------5--5---5---0----|-
D|-------2---------2---------|------5-----------5--5---5---0----|-
A|-2-----------0-------------|--5------------3--3--3---3---0----|-
E|-0--------0-------------0--|--3--------0----------------------|-



::Chorus::
  Esus4		      G			   E5
  ___                           Have a hangover____
e|------------------|-------3-------3-----|------------------|-
B|-------0----0-----|-------0-------0---0-|-------0----0-----|-
G|----0--0-0--0--0--|-0--0--0-------0---0-|----0--0-0--0--0--|-
D|-2--2--2-2--2--2--|-0--0------0---0---0-|-2--2--2-2--2--2--|-
A|-2--2----2-----2--|-2--2------2-------2-|-2--2----2-----2--|-
E|-0--0----------0--|-3--3------3---------|-0--0----------0--|-
||G                      E5
||            Have a hangover__
e|-------3-------3-----|------------------|-
B|-------0-------0---0-|-------0----0-----|-
G|-0--0--0-------0---0-|----0--0-0--0--0--|-
D|-0--0------0---0---0-|-2--2--2-2--2--2--|-
A|-2--2------2-------2-|-2--2----2-----2--|-
E|-3--3------3---------|-0--0----------0--|-
|| G			 E5
||            Have a hangover___
e|-------3-------3-----|------------------|-
B|-------0-------0---0-|-------0----0-----|-
G|-0--0--0-------0---0-|----0--0-0--0---0-|-
D|-0--0------0---0---0-|-2--2--2-2--2---0-|-
A|-2--2------2-------2-|-2--2----2--2---0-|-
E|-3--3------3---------|-0--0-------0---0-|-
|| G
||
e|-1--1-----------------------------------|-
B|-0--0-----------------------------------|-
G|-0--0-----------------------------------|-
D|-0--0-----------------------------------|-
A|-2--2-----------------------------------|-
E|-3--3--/7--7--5\3-----------------------|-



::Bridge::
|| B5			  C5
||         Skin the sun_____      Fall asleep
e|----------------------|----------------------|-
B|----------------------|----------------------|-
G|-4--4--4-----4--4--0--|-5--5--5-----5--5--0--|-
D|-4--4--4-----4--4--0--|-5--5--5-----5--5--0--|-
A|-2--2--2-----2--2--0--|-3--3--3-----3--3--0--|-
E|----------------------|----------------------|-
|| B5			  C5
||         Wish away_______       Soul is cheap
e|----------------------|----------------------|-
B|----------------------|----------------------|-
G|-4--4--4-----4--4--0--|-5--5--5-----5--5--0--|-
D|-4--4--4-----4--4--0--|-5--5--5-----5--5--0--|-
A|-2--2--2-----2--2--0--|-3--3--3-----3--3--0--|-
E|----------------------|----------------------|-
|| B5			  C5
||         lesson learned_____     wish me luck
e|----------------------|----------------------|-
B|----------------------|----------------------|-
G|-4--4--4-----4--4--0--|-5--5--5-----5--5--0--|-
D|-4--4--4-----4--4--0--|-5--5--5-----5--5--0--|-
A|-2--2--2-----2--2--0--|-3--3--3-----3--3--0--|-
E|----------------------|----------------------|-
|| B5			  C5
||         Sooth the burn__  wake me up_____   
e|----------------------|----------------------|-
B|----------------------|-5--------------------|-\
G|-4--4--4-----4--4--0--|-5--------------------|- \ let chord 
D|-4--4--4-----4--4--0--|-5--------------------|- / ring
A|-2--2--2-----2--2--0--|-3--------------------|-/
E|----------------------|----------------------|-





::VERSE THREE::
   E5    A5                     G5  C5
                Im not like them__         but I can  pre-tend__
e|---------------------------|----------------------------------|-
B|---------------------2-----|---------------------------5------|-
G|-------2-------------2-----|------5--------------------5------|-
D|-------2---------2---------|------5--------------5------------|-
A|-2-----------0-------------|--5------------3------------------|-
E|-0--------0-------------0--|--3--------0-------------------0--|-
||E5    A5                     G5  C5
||___          The sun is gone____         but I have   a  light_
e|---------------------------|----------------------------------|-
B|---------------------2-----|---------------------------5------|-
G|-------2-------------2-----|------5--------------------5------|-
D|-------2-----2---2---------|------5--------------5------------|-
A|-2-----------0-------------|--5------------3------------------|-
E|-0--------0-------------0--|--3--------0-------------------0--|-
||E5    A5                     G5  C5
||___         The day is done___            but im  hav-ing fun_
e|---------------------------|----------------------------------|-
B|---------------------2-----|---------------------------5------|-
G|-------2-------------2-----|------5--------------------5------|-
D|-------2---------2---------|------5--------------5------------|-
A|-2-----------0-------------|--5------------3------------------|-
E|-0--------0-------------0--|--3--------0-------------------0--|-
||E5    A5                     G5  C5
||___           I think im dumb__        or may-be just__ happy__
e|---------------------------|----------------------------------|-
B|---------------------2-----|------------------5--5---5---0----|-
G|-------2-------------2-----|------5-----------5--5---5---0----|-
D|-------2---------2---------|------5-----------5--5---5---0----|-
A|-2-----------0-------------|--5------------3--3--3---3---0----|-
E|-0--------0-------------0--|--3--------0----------------------|-



::CHORUS::
  Esus4		      G			   E5
  ___                          Think im just happy____
e|------------------|-------3-------3-----|------------------|-
B|-------0----0-----|-------0-------0---0-|-------0----0-----|-
G|----0--0-0--0--0--|-0--0--0-------0---0-|----0--0-0--0--0--|-
D|-2--2--2-2--2--2--|-0--0------0---0---0-|-2--2--2-2--2--2--|-
A|-2--2----2-----2--|-2--2------2-------2-|-2--2----2-----2--|-
E|-0--0----------0--|-3--3------3---------|-0--0----------0--|-
||G                      E5
||          Think im just happy__
e|-------3-------3-----|------------------|-
B|-------0-------0---0-|-------0----0-----|-
G|-0--0--0-------0---0-|----0--0-0--0--0--|-
D|-0--0------0---0---0-|-2--2--2-2--2--2--|-
A|-2--2------2-------2-|-2--2----2-----2--|-
E|-3--3------3---------|-0--0----------0--|-
|| G			 E5
||          Think im just happy__
e|-------3-------3-----|------------------|-
B|-------0-------0---0-|-------0----0-----|-
G|-0--0--0-------0---0-|----0--0-0--0---0-|-
D|-0--0------0---0---0-|-2--2--2-2--2---0-|-
A|-2--2------2-------2-|-2--2----2--2---0-|-
E|-3--3------3---------|-0--0-------0---0-|-
|| G
||
e|-1--1-----------------------------------|-
B|-0--0-----------------------------------|-
G|-0--0-----------------------------------|-
D|-0--0-----------------------------------|-
A|-2--2-----------------------------------|-
E|-3--3--/7--7--5\3-----------------------|-



::OUTRO::
|| E5       A5           G5         C5
||         I think in dumb____   I think im dumb  
e|----------------------------------------------|
B|----------------------------------------------|
G|-----------2--2--2--0-------------5--5--5--0--|
D|-2--2--0---2--2--2--0---5--5--0---5--5--5--0--|
A|-2--2--0---0--0--0--0---5--5--0---3--3--3--0--|
E|-0--0--0----------------3--3--0---------------|
|| E5       A5           G5         C5
||__       I think in dumb____   I think im dumb  
e|----------------------------------------------|
B|----------------------------------------------|
G|-----------2--2--2--0-------------5--5--5--0--|
D|-2--2--0---2--2--2--0---5--5--0---5--5--5--0--|
A|-2--2--0---0--0--0--0---5--5--0---3--3--3--0--|
E|-0--0--0----------------3--3--0---------------|
|| E5       A5           G5         C5
||__       I think in dumb____   I think im dumb  
e|----------------------------------------------|
B|----------------------------------------------|
G|-----------2--2--2--0-------------5--5--5--0--|
D|-2--2--0---2--2--2--0---5--5--0---5--5--5--0--|
A|-2--2--0---0--0--0--0---5--5--0---3--3--3--0--|
E|-0--0--0----------------3--3--0---------------|
|| E5       A5           G5         C5
||__       I think in dumb____   I think im dumb  
e|----------------------------------------------|
B|----------------------------------------------|
G|-----------2--2--2--0-------------5--5--5--0--|
D|-2--2--0---2--2--2--0---5--5--0---5--5--5--0--|
A|-2--2--0---0--0--0--0---5--5--0---3--3--3--0--|
E|-0--0--0----------------3--3--0---------------|
|| E5       A5           G5         C5
||__       I think in dumb____   I think im dumb  
e|----------------------------------------------|
B|----------------------------------------------|
G|-----------2--2--2--0-------------5--5--5--0--|
D|-2--2--0---2--2--2--0---5--5--0---5--5--5--0--|
A|-2--2--0---0--0--0--0---5--5--0---3--3--3--0--|
E|-0--0--0----------------3--3--0---------------|
|| E5       A5           G5         C5
||__       I think in dumb____   I think im dumb  
e|----------------------------------------------|
B|----------------------------------------------|
G|-----------2--2--2--0-------------5--5--5--0--|
D|-2--2--0---2--2--2--0---5--5--0---5--5--5--0--|
A|-2--2--0---0--0--0--0---5--5--0---3--3--3--0--|
E|-0--0--0----------------3--3--0---------------|
|| Em
||___
e|-----------------------------------------------|
B|-0---------------------------------------------|\
G|-0---------------------------------------------| \ Let chord
D|-2---------------------------------------------| / ring
A|-2---------------------------------------------|/
E|-0---------------------------------------------|


	
=============================================================================
| /  slide up
| \  slide down
| h  hammer-on
| p  pull-off
| ~  vibrato
| +  harmonic
| x  Mute note
=============================================================================





Comments


Popular Nirvana tabs & chords
Frances Farmer Will Have Her Revenge On Seattle 1 Bass Tabs
Pennyroyal Tea 2 Bass Tabs
Turnaround Bass Tabs
Aneurysm Tabs
Breed 4 Tabs
Endless Nameless 2 Tabs
In Bloom 2 Tabs
In Bloom 8 Tabs
Lithium 3 Tabs
Floyd The Barber Ukulele


Song lyrics



↑ Back to top | Tablatures and chords are parodies/interpretations of the original songs. You may use it for private study, scholarship, research or language learning purposes only
© 2014 AZChords.com Contact us | Privacy policy | DMCA | Add/correct tabs | Request tabs | Top 50 tabs