» » »

Nirvana, Drain You Bass tabs (ver.6)

Artists:  A B C D E F G H I J K L M N O P Q R S T U V W X Y Z # 

Drain You Bass tabs (ver.6)

Nirvana Tabs
 Rating:
4/5 (4 votes)
Drain You lessons Tabs too difficult? Try these video lessons and learn fast
1
                ----------------------------------------------------------------------------
                                                  Drain You - Nirvana
----------------------------------------------------------------------------


Tuning: tune down 1 step (DGCF)

Tempo: 135 BPM

Notes:
* I used the original bass master track to transcribe this song, so it should be 
at least 95% correct :)

    Verse:
   1   2   3   4     1   2   3   4    
F|-----------------|-----------------|
C|-----------------|-----------------|
G|-2---2--/6---6\--|---------4-4-4-4-|
D|-----------------|-4---4-----------|

    Pre-chorus:
   1   2   3   4   
F|-----------------|
C|-----------------|
G|-----------------|
D|-2~~~~~~-0~~~~~~-|

    Chorus:
   1   2   3   4     1   2   3   4   
F|-----------------|-----------------| x 3 times
C|-----------------|-----------------|(x 5 times during the last chorus)
G|-4-4-4-4-4-4-4---|-----------------|
D|---------------5-|-0-0-0-0-0-0-0-0-|

   1   2   3   4     1   2   3   4   
F|-----------------|-----------------|-----------------|-----------------|
C|-----------------|-----------------|-----------------|-----------------|
G|-4-4-4-4-4-4-4-0-|-2~~~~~~-0~~~~~~-|-----------------|-----------------|
D|-----------------|-----------------|-4~~~~~~~~~~~~~~-|-----------------|
                    "i.......like......you...."

    Chorus variation:
   1   2   3   4     1   2   3   4   
F|-----------------|-----------------| x 3 times
C|-----------------|-----------------| 
G|-4-4-4-4-4-4-4---|-----------------|
D|---------------5-|-0-0-0-0-0-0-0-0-|

   1   2   3   4     1   2   3   4   
F|-----------------|-----------------|
C|-----------------|-----------------|
G|-4-4-4-4-4-4-4-0-|-2~~~~~~-0~~~~~~-|
D|-----------------|-----------------|

    Bridge:
   1   2   3   4   
F|-----------------|
C|-----------------|
G|-----------------|
D|-4~~-4-4-4-4-4-4-|

   1   2   3   4   
F|-----------------|
C|-----------------|
G|-----------------|
D|-4-4-4-4-4-4-4-4-|

Every time the guitar plays very loudly, play octave F#s (4 fret):

F|-----------------|-----------------|
C|---6---6---6---6-|---6---6---6---6-|
G|-----------------|-----------------|
D|-4---4---4---4---|-4---4---4---4---|

Slowly increase the attack volume and end with:

   1   2   3   4   
F|-----------------|
C|-----------------|
G|---------------0-|
D|-4-4-4-4-4-4-4---|

Then play Verse and Chorus.

  Song structure:
    Guitar intro (4 bars)
    Verse x 6
    Pre-Chorus x 1
    Chorus x 1
    Verse x 8
    Pre-chorus x 1
    Chorus variation x 1
    Bridge
    Verse x 10
    Pre-chorus x 1
    Chorus x 1

| /  slide up
| \  slide down
| ~  hold this note
            
Submit corrections

comments powered by Disqus
↑ Back to top | Nirvana Bass for Drain You. Lyrics for acoustic guitar and electric guitar. 1 Tablatures and chords are parodies/interpretations of the original songs. You may use it for private study, scholarship, research or language learning purposes only