» » »

Nirvana, Drain You Tabs (ver.3)

Artists:  A B C D E F G H I J K L M N O P Q R S T U V W X Y Z # 

Drain You Tabs (ver.3)

Nirvana Tabs
 Rating:
4/5 (4 votes)
Drain You lessons Tabs too difficult? Try these video lessons and learn fast
                Nirvana
Drain You Live Version (100% correct Kurt style) 

Symbols
/=Slide Up
\=Slide Down


  Intro/Verse                  Hit Distortion and leave on 
  *Starts Clean				 for the versus from now on
E--------------------------------------------I----------------------
B--------------------------------------------I----------------------
G-4-44-4/8-88--------6-660-4-44-4/8-88-------I6-660-4-44-4/8--------
D-4-44-4/8-88-0-6-60-6-660-4-44-4/8-88-0-6-60I6-660-4-44-4/8--------
A-2-22-2/6-66-0-6-60-4-440-2-22-2/6-66-0-6-60I4-440-2-22-2/6--------
E-------------0-4-40-------------------0-4-40I----------------------
    Verse1                            Hit Distortion
    

Part A
To lead into the chorus immediately head into this part after Db of the verse
             I-----------------I 4X's     
E------------------------------I---------------------------------
B------------------------------I---------------------------------
G------------------------------I----4-2--------------------------
D---X66X-2-2-66666660-22222220-I----4-2-6-XXXXXXX--X’s-here-mean-
A---X66X-2-2-66666660-22222220-I----2-0-6-XXXXXXX---to-palm-mute-
E---X44X-0-0-44444440-00000000-I--------4-XXXXXXX----------------
                                   I-------------I 
			Play once on the fifth time through           
*Retuern to Verse one the 1st time through on the 2nd time go to the solo


 For the next part of the song theres a lot of studio effects so i've 
 tabbed the g-tar parts. we'll call it the studio part

SOLO
   W/ Distortion and Flanger    
Last chord is played with no distortion
E------------------------------I
B------------------------------I\
G------------------------------I \ Play twice
D---6666666666666666-6----(22)-I / Then go to 2nd part of solo
A---6666666666666666-6----(22)-I/
E---4444444444444444-4----(00)-I
		(play lightly if at all)

 2nd Part of Solo
	Strum end part very hard while screaming aaaghhhh!!I      I
E---------------------------------------------------------------------
B----------------------------------------------------------6666666----
G----------------------------------------------------------6666666----
D---6-6-6-6-6-6-6-6-\-Repeat-3x-------------6-6-6-6-6-6-6-66666666----
A---6-6-6-6-6-6-6-6- >-getting-quieter------6-6-6-6-6-6-6-64444444----
E---4-4-4-4-4-4-4-4-/-each-time-then-play---4-4-4-4-4-4-4-4-----------
    *Start heavy palm mute then as you go lessen palm mute and strum louder/harder

Order:
Intro
Verse
PartA
Verse2
PartA
Solo both parts
Verse
PartA
            
Submit corrections

comments powered by Disqus
↑ Back to top | Nirvana Tabs for Drain You. Lyrics for acoustic guitar and electric guitar. Tablatures and chords are parodies/interpretations of the original songs. You may use it for private study, scholarship, research or language learning purposes only