» » »

Nirvana, Downer Tabs (ver.2)

Artists:  A B C D E F G H I J K L M N O P Q R S T U V W X Y Z # 

Downer Tabs (ver.2)

Nirvana Tabs
 Rating:
4/5 (4 votes)
Downer lessons Tabs too difficult? Try these video lessons and learn fast
                "Downer" -- Nirvana

Starts off with bass doing:

E-----0-0-0-0-0-8-8-8--0-0-0-0-0-8-8-8-----

(It sound chopped up, as does most of the song, because the entire thing
was dubbed over top of itself with a short delay.)

Then the gitter comes in:

E------------5-------------------5-----------
B--2---------5---------2---------5-----------
G--2---------5---------2---------5-----------
D--2---------5---------2---------5-----------
A--2---------3---------2---------3-----------
E--0-------------------0---------------------

The verse is bass only, doing the same the intro stuff.

On "Fight!", the gitter comes in again:

D---10\-|---------------------------------------|
A---10\-|--5--6-7-6--5-6-7-6--5--6-7-6--5-6-7-6-| the last measure is played
E----8\-|---------------------------------------|          twice

Then the gitter does this (in sync w/the bass):

G------------5-5-5------------5-5-5---
D--2-2-2-2-2-5-5-5--2-2-2-2-2-5-5-5---
A--2-2-2-2-2-3-3-3--2-2-2-2-2-3-3-3---
E--0-0-0-0-0--------0-0-0-0-0---------

Then it goes into the chorus ("Somebody served a dinner..."):

G------------8----9--------------8----9----
D--7----8----8----9----7----8----8----9----
A--7----8----6----7----7----8----6----7----
E--5----6--------------5----6--------------

...and the rest follows these segments, and ends abruptly on an E power chord.
            
Submit corrections

comments powered by Disqus
↑ Back to top | Nirvana Tabs for Downer. Lyrics for acoustic guitar and electric guitar. Tablatures and chords are parodies/interpretations of the original songs. You may use it for private study, scholarship, research or language learning purposes only