» » »

Nirvana, Dive Bass tabs (ver.1)

Artists:  A B C D E F G H I J K L M N O P Q R S T U V W X Y Z # 

Dive Bass tabs (ver.1)

Nirvana Tabs
Rating:
0/5 (0 votes)
Hard to play? Try these video lessons and learn fast.
                                        Dive: By Nirvana

 Tabbed: By Brandon watt
 Bassist: Krist Novoselic

 Note: this song is not intermediate
 my bass skills are. 
      
   
Intro/verse:
G||-------------------------------|
D||-------------------------------|
A||---------------------7-7-7-7---|
E||--2--0-2b-0-2b-0-0-------------|x14

Chorus:
G||-------------------------------|
D||-------------------------------|
A||--2--2-4--4-------7-7-7--------|
E||------------3--3---------------|


G||-------------------------------|
D||-------------------------------|
A||---------------------7-7-7-7---|
E||--2--0-2b-0-2b-0-0-------------|x3

verse:
G||-------------------------------|
D||-------------------------------|
A||---------------------7-7-7-7---|
E||--2--0-2b-0-2b-0-0-------------|x11

Chorus:
G||-------------------------------|
D||-------------------------------|
A||--2--2-4--4-------7-7-7--------|
E||------------3--3---------------|


G||-------------------------------|
D||-------------------------------|
A||---------------------7-7-7-7---|
E||--2--0-2b-0-2b-0-0-------------|x3

verse:
G||-------------------------------|
D||-------------------------------|
A||---------------------7-7-7-7---|
E||--2--0-2b-0-2b-0-0-------------|x3

Solo:
G||-------------------------------|
D||--8--6--8-8-6--8---------------|
A||------------------7-7-7--------|
E||-------------------------------|x8

Chorus:
G||-------------------------------|
D||-------------------------------|
A||--2--2-4--4-------7-7-7--------|
E||------------3--3---------------|


G||-------------------------------|
D||-------------------------------|
A||---------------------7-7-7-7---|
E||--2--0-2b-0-2b-0-0-------------|x3


verse:
G||-------------------------------|
D||-------------------------------|
A||---------------------7-7-7-7---|
E||--2--0-2b-0-2b-0-0-------------|x5

outro:
G||------------|
D||------------|
A||------------|
E||-2----------|

Easy song and fun to play, R.I.P Kurt Cobain.Any 
questions or comments email  me at 
            

comments powered by Disqus
↑ Back to top | Nirvana Bass for Dive. Lyrics for acoustic guitar and electric guitar. Tablatures and chords are parodies/interpretations of the original songs. You may use it for private study, scholarship, research or language learning purposes only