» » »

D Bass tabs (ver.5)

Artists:  A B C D E F G H I J K L M N O P Q R S T U V W X Y Z # 

D Bass tabs (ver.5)

Nirvana
Rating:
0/5 (0 votes)

Hard to play? Try these video lessons and learn fast.
                Verse
G--------------------|
D-----2---------0----|
A---2---2-----2---2--|
E-0-------0-1--------|

When kurt goes "For nameless reasons...", play
G--------------------|
D----------3--3-3----|
A-2--2-2-3---------3-|
E--------------------|

for the fast part play this;
G----------------------|
D----------------------|
A----------------------|
E-5-5-5-5-5-5-6-6-4444-|

and this time when he screams "for nameless reasons..." play
G---------------------|
D---------------------|
A---------------------|
E-55555555-88888888---|

Guitar solo
G----------------------|
D----------------------|
A----------------------|
E-5-5-5-5-5-5-6-6-4444-|

End on this

G---------------------|
D---------------------|
A---------------------|
E-9p8p7p0--5*---------|
            
Hard to play? Try these video lessons and learn fast. | Correct




comments powered by Disqus
↑ Back to top | Tablatures and chords are parodies/interpretations of the original songs. You may use it for private study, scholarship, research or language learning purposes only