>
 >
D-7

D-7 Guitar Tabs

Nirvana - D-7 chords, tabs, tablatures, lyrics

Guitar lessons | Add/correct | Request | Top 50 tabs Artists:  A B C D E F G H I J K L M N O P Q R S T U V W X Y Z 0-9

D-7 Guitar Tabs – Nirvana

CD, Sheet music, Poster

Do you like D-7? Share with your friends now
Bass TabsBass Tabs v2Bass Tabs v3Bass Tabs v4Bass Tabs v5Tabs
D-7 as played by Nirvana on the "Hormoaning" EP:
~~~~~~~~~~~~~~~~~~~~~~~~~~~~~~~~~~~~~~~~~~~~~~~~

Lyrics:

verse 1:
Straight as an arrow, defect, defect.
Not straight, not so straight, reject, reject.
Towards anti-social, solo, solo.
verse 2:
Standing on the stairs, cold cold morning.
Ghostly image of fear, mayday, mayday.
Gonna leave this region, they'll take me with them.

Dimension Seven

tuning: standard (although drop D would work very well)

slow part (no distortion):

E---0--------0--1--------1--  this sequence is played twice before the drums
A------2-----------3--------  come in, then twice more with the drums, then
D---------2-----------0-----  all throughout the first two lines of each 
G---------------------------  verse.
B---------------------------
E---------------------------

E---5-----5-----6-----6-----5-----5-----6--6--------  this is played during
A------7--7--7-----8--8--8-----7--7--7--8--8--------  the third line of each
D---------7-----------8-----------7-----8--8--------  verse, after which it
G---------------------------------------------------  returns to the riff
B---------------------------------------------------  above.
E---------------------------------------------------

Then there is that pause where the last chord (E) rings out for about
four to eight beats,and then Kurt turns the distortion on and doubles
the tempo.

He uses the following power chord progression:
(REALLY FAST--X MEANS MUTED CHORD)
E,E,X,X,E,E,E,E,F,F,F,G,G,G,F,F x2
then he repeats verse 1 (screaming of course)
use the above chords for the first two lines, and then this for the 
third line:
A,A,X,X,A,A,A,A,A#,A#,A#,C,C,C,A#,A# x2
repeat the first power chord progression twice with no lyrics.

scream verse 2 (same chords as verse 1)

guitar solo (improvise your own, it's pretty easy)

scream verse 1 again

repeat first chord progression 8 times more,
screaming "dimension seven" in each.

-----------------------------------
"D-7" as performed by Nirvana
(originally written by Greg Sage,
performed by the Wipers)

This is a great cover tune.  For those who don't know about it, it's on some
demos and on the Hormoaning import ep.  I think it's on one of the import
singles too (probably Lithium UK import).

standard tuning
~ = let ring
hb = half bend

Intro
   E5                     F5     (G5) F5
-----------------------------
-----------------------------
-----------------------------
--------2-------------0------
-----2-----2-------3-----3---
--0-------------1------------

(it's probably easier to play the intro in Drop D, but, whatever floats your
boat...)

then that almost-chorus-like part of the intro (strumming):
A5  (x022xx)    G5  (355xxx)

the intro ends with a strummed E5.

Verse
   E5                                 F5              G5
-----------------------------------------------
-----------------------------------------------
-----------------------------------------------
--2--2-----2---2--2---3--3--3---5---5--5--5--
--2--2-----2---2--2---3--3--3---5---5--5--5--
--0--0--0--0---0--0---1--1--1---3---3--3--3--

Chorus
   A5                                A#5            C5
-----------------------------------------------
-----------------------------------------------
--2--2--2---2--2--2---3--3--3---5---5--5--5--
--2--2--2---2--2--2---3--3--3---5---5--5--5--
--0--0--0---0--0--0---1--1--1---3---3--3--3--
-----------------------------------------------

Solo (at least the beginning)
---------------------------------------------
---------------------------------------------
--9~--------9-9-------9hb--9--7-------------
------------------------------------7--9-----
---------------------------------------------
---------------------------------------------





Comments


Popular Nirvana tabs & chords
Aero Zeppelin Bass Tabs
Bambi Slaughter Bass Tabs
Born In A Junkyard 1 Bass Tabs
Floyd The Barber 2 Bass Tabs
Curmudgeon Chords
Mr Moustache Chords
Anorexorcist (Intro) Tabs
Freebird 1 Tabs
Lake Of Fire 5 Tabs
Oh Me 2 Tabs


Song lyrics



↑ Back to top | Tablatures and chords are parodies/interpretations of the original songs. You may use it for private study, scholarship, research or language learning purposes only
© 2014 AZChords.com Contact us | Privacy policy | DMCA | Add/correct tabs | Request tabs | Top 50 tabs