» » »

Nirvana, D Tabs (ver.3)

Artists:  A B C D E F G H I J K L M N O P Q R S T U V W X Y Z # 

D Tabs (ver.3)

Nirvana Tabs
Rating:
0/5 (0 votes)
D lessons Tabs too difficult? Try these video lessons and learn fast
                "(7)

D-7 (Dimension-Seven)
as performed by Nirvana
(originally written by Greg Sage, performed by the Wipers)





How sold on

Stay a near along the stairs 
You come on him
You stay don't you feel
Mayday mayday
Go and leave this reagon
They'll take me away then
Dimension seven

Quiet Part
1:-------------------------------------------------------------------------
2:-------------------------------------------------------------------------
3:-------------------------------------------------------------------------
4:-----2-------0-------2-------0-------2-------0-------2-------0-------2---
5:---2---2---3---3---2---2---3---3---2---2---3---3---2---2---3---3---2---2-
6:-0-------1-------0-------1-------0-------1-------0-------1-------0-------

1:-------------------------------------------------------------------------
2:-------------------------------------------------------------------------
3:-------------------------2--2-x-x-----0-------2-------3------------------
4:-----0-------2-------3---2--2-x-x---3---3---2---2---3---3-2---2-------0--
5:---3---3---2---2---3---3-0--0-x-x-1-------0-------1-------2-2---2---3---3
6:-1-------0-------1----------------------------------------0-------1------

1:-------------------------------------------------------------------------
2:-------------------------------------------------------------------------
3:-------------------------------------------------------------------------
4:-----2-------0-------2-------0-------2-------0---2-x---------------------
5:---2---2---3---3---2---2---3---3---2---2---3---3-2-x---------------------
6:-0-------1-------0-------1-------0-------1-------0-x---------------------

Loud Part

Play 3 times					After the 3rd time
  E5                   F5       G5 F5
1:--------------------------------------    1:-----------
2:--------------------------------------    2:-----------
3:--------------------------------------    3:-----------
4:-2-2-2-2---2-2-2-2---3-3-3-3--5-5-3-3-    4:--2--------
5:-2-2-2-2---2-2-2-2---3-3-3-3--5-5-3-3-    5:--2--------
6:-0-0-0-0---0-0-0-0---1-1-1-1--3-3-1-1-    6:--0--------

Straight as an arrow, defect, defect.
Not straight, not so straight, reject, reject.
Towards anti-social, social, sociaaaaaaaaahl(Hall)

Standing on the stairs, cold cold morning.
Ghostly image of fear, mayday, mayday.

Gonna leave this region, they'll take me with them.
Dimension Seven

Play two times

   E5                  F5       G5 F5
1:--------------------------------------
2:--------------------------------------
3:--------------------------------------
4:-2-2-2-2---2-2-2-2---3-3-3-3--5-5-3-3-
5:-2-2-2-2---2-2-2-2---3-3-3-3--5-5-3-3-
6:-0-0-0-0---0-0-0-0---1-1-1-1--3-3-1-1-

Then play this two times
   A5                  A#5      B5  A#5
1:--------------------------------------
2:--------------------------------------
3:-2-2-2-2---2-2-2-2---3-3-3-3--5-5-3-3-
4:-2-2-2-2---2-2-2-2---3-3-3-3--5-5-3-3-
5:-0-0-0-0---0-0-0-0---1-1-1-1--3-3-1-1-
6:--------------------------------------

Play 4 times
   E5                  F5       G5 F5
1:--------------------------------------
2:--------------------------------------
3:--------------------------------------
4:-2-2-2-2---2-2-2-2---3-3-3-3--5-5-3-3-
5:-2-2-2-2---2-2-2-2---3-3-3-3--5-5-3-3-
6:-0-0-0-0---0-0-0-0---1-1-1-1--3-3-1-1-

Solo:
1:--~~~~~-~~~~~-------------------(~~~~~~~~-----------------
2:-5-----5-----5--3----~~~~~~~~~-5----------5--3----~~~~~~~~
3:------------------0h4--------------------------0h4--------
4:----------------------------------------------------------
5:----------------------------------------------------------
6:----------------------------------------------------------


1:-----------7------------------7-7-7-7-7-7-7-7-77777-77----
2:-7/8888888-8-888888-7/8888888-8-8-8-8-8-8-8-8-88888-88----
3:-6/7777777---777777-6/7777777-----------------------------
4:----------------------------------------------------------
5:----------------------------------------------------------
6:----------------------------------------------------------

1:-7-7-7-7-10-----------------------------------------------
2:-8-8-8-8-11-----------------------------------------------
3:----------+-----------------------------------------------
4:----------------------------------------------------------
5:----------------------------------------------------------
6:----------------------------------------------------------

Then play this 7 times
   E5                  F5       G5 F5
1:--------------------------------------
2:--------------------------------------
3:--------------------------------------
4:-2-2-2-2---2-2-2-2---3-3-3-3--5-5-3-3-
5:-2-2-2-2---2-2-2-2---3-3-3-3--5-5-3-3-
6:-0-0-0-0---0-0-0-0---1-1-1-1--3-3-1-1-

Straight as an arrow, defect, defect.
Not straight, not so straight
"            

comments powered by Disqus
↑ Back to top | Nirvana Tabs for D. Lyrics for acoustic guitar and electric guitar. Tablatures and chords are parodies/interpretations of the original songs. You may use it for private study, scholarship, research or language learning purposes only