» » »

Nirvana, Cocaine Girl Bass tabs (ver.1)

Artists:  A B C D E F G H I J K L M N O P Q R S T U V W X Y Z # 

Cocaine Girl Bass tabs (ver.1)

Nirvana Tabs
 Rating:
4/5 (4 votes)
Cocaine Girl lessons Tabs too difficult? Try these video lessons and learn fast
                -------------------------------------------------------------------------------
			     Cocaine Girl - Nirvana
-------------------------------------------------------------------------------


Tuning: Standard


Bass starts in with drums after the guitar plays the intro twice.

Riff A:
G|------------------------------|
D|------------------------------|
A|-2-2--2-2-2--2----5-----5-----|
E|---------------4-4---5-5------|

Riff B:
G|---------------------------------------------|
D|---------------------------------------------|
A|---------------------------------------------|
E|-0--0-0-0-2-3-3-3-5-3--2-2-2-2-3-5-5-5-5-----|

Riff C:
G|-----s4------------------|
D|-------------------------|
A|-2-2----2-2----5----5----|
E|------------4-4--5-5-----|

Riff D:
G|----------------------|
D|----------------------|
A|-2-2--0-0-------------|
E|----------2-2-3-3-3---|

The next two parts are played just during the guitar riff after the solo where the drums cut out.

Fill A:
G|------|
D|------|
A|-2----|
E|------|

Fill B:
G|----------|
D|----------|
A|-2-2------|
E|----------|

This is how many times you must play each piece and the order:

Riff Ax5
Riff Bx2
Riff Cx5
Riff Bx2
Riff Dx4
Fill Ax1
Fill Bx1
Play Riff A until the end of the song.





KEY
| /  slide up
| \  slide down
| h  hammer-on
| p  pull-off
| ~  vibrato
| s  Snap Note (pull the string up instead of picking normally)
| x  Mute note
===============================================================================
            
Submit corrections

comments powered by Disqus
↑ Back to top | Nirvana Bass for Cocaine Girl. Lyrics for acoustic guitar and electric guitar. Tablatures and chords are parodies/interpretations of the original songs. You may use it for private study, scholarship, research or language learning purposes only