» » »

Nirvana, Buffys Pregnant Tabs (ver.2)

Artists:  A B C D E F G H I J K L M N O P Q R S T U V W X Y Z # 

Buffys Pregnant Tabs (ver.2)

Nirvana Tabs
 Rating:
4/5 (4 votes)
Buffys Pregnant lessons Tabs too difficult? Try these video lessons and learn fast
1
                Song Name: Buffy's Pregnant tab

Note: Due to bad quality, this may not be 100%, but pretty close.

P.S. I know the artist says Nirvana for this tab...
due to it not being in their database. This is a Fecal Matter song though...


Main Riff A                     Main Riff B
E---------------------------|   E------------------------------|
B---------------------------|   B------------------------------|
G--------------10--10--10---|   G--------10----11--11--11--11--|
D--------------10--10--10---|   D--------10----11--11--11--11--|
A---------6----8---8---8----|   A--------8-----9---9---9---9---|
E---0--5--------------------|   E--0--5------------------------|
    .  .    Do a 1/4 step bend     .  .        Do a 1/4 step bend
            with these chords                  with these chords
             

Fill                            Chorus              
E-------------------------|  E----------------|
B-------------------------|  B----------------|
G--12-11------------------|  G----------7--7--|
D--------12-11-12---------|  D--6--6----7--7--|
A-----------------11-12---|  A--6--6----5--5--|
E-----------------------11|  E--4--4----------|

Post Chorus
E--------------------------------------|
B--------------------------------------|
G--------------------------------------|
D-8-8-9-9-10-10-11-11-10-10-9-9-8-8-7--|
A-8-8-9-9-10-10-11-11-10-10-9-9-8-8-7--|
E-6-6-7-7-8--8--9--9--8--8--7-7-6-6-5--|
  . . . . . . . .  .  .  .  . . . .


The Solo is possible to tab but I don't have a good enough ear.
So just go crazy for the solo!
(In the background during the solo, Main Riff A is played 4 times then 
Main Riff B x3, then Fill, Main Riff x3, Fill, and finally Main Riff x3, then Fill)

Song Order:
Main Riff A x8
Main Riff B x3
Fill
Main Riff B x3
Fill
Main Riff B x3
Fill
Main Riff A x8
Main Riff B x3 
Fill
Main Riff B x3
Fill
Chorus x8
Post Chorus x4
Main Riff A x8
Main Riff B x3
Fill
Main Riff B x3
Fill
Main Riff B x3
Fill
Chorus x8
Post Chorus x4
Solo
Chorus x8
Post Chorus x4
            
Submit corrections

comments powered by Disqus
↑ Back to top | Nirvana Tabs for Buffys Pregnant. Lyrics for acoustic guitar and electric guitar. 1 Tablatures and chords are parodies/interpretations of the original songs. You may use it for private study, scholarship, research or language learning purposes only