» » »

Nirvana, Buffys Pregnant Tabs (ver.1)

Artists:  A B C D E F G H I J K L M N O P Q R S T U V W X Y Z # 

Buffys Pregnant Tabs (ver.1)

Nirvana Tabs
 Rating:
4/5 (4 votes)
Buffys Pregnant lessons Tabs too difficult? Try these video lessons and learn fast
                intro
|-------------------------------------------------------------------|
|-14-14-14-14-14-14-14-14-14-14-14-14-14-14-12-12/14-14-14-14-14-14-|
|----------------------------------------------12/14----------------|
|-------------------------------------------------------------------|
|---------------------- 0r------------------------------------------|
|------------------- 0r---------------------------------------------|

|-----------------------------------------|
|-12-12-14-14v----14v--14v14v----14v-14\3-|
|-----------------------------------------|
|-----------------------------------------|
|-----------------------------------------|
|-----------------------------------------|
                x4               x4
|----------------|----------------|
|--------9-9-9-9-|----------9-9v9-|
|--------8-8-8-8-|--------8-----8-|
|----------------|----------------|
|-----7----------|-----7----------|
|-4-5------------|-4-5------------|
                                                                x2
|----------------------------------------------------------------|
|-----8--9-9-9-9-----8--9-9-9-9-----8--9-9-9-9-10-9-8-7----------|
|-----7--8-8-8-8-----7--8-8-8-------7--8-8-8-8----------10-9-7-5-|
|----------------------------------------------------------------|
|----------------------------------------------------------------|
|-4-5------------4-5------------4-5------------------------------|

Verse                                                          
|----------------------------------------------------------------|
|-----8--9-9-9-9-----8--9-9-9-9-----8--9-9-9-9-10-9-8-7----------|
|-----7--8-8-8-8-----7--8-8-8-------7--8-8-8-8----------10-9-7-5-|
|----------------------------------------------------------------|
|----------------------------------------------------------------|
|-4-5------------4-5------------4-5------------------------------|
                x4
|----------------|
|--------9-9-9-9-|
|--------8-8-8-8-|
|----------------|
|-----7----------|
|-4-5------------|

|----------------------------------------------------------------|
|-----8--9-9-9-9-----8--9-9-9-9-----8--9-9-9-9-10-9-8-7----------|
|-----7--8-8-8-8-----7--8-8-8-------7--8-8-8-8----------10-9-7-5-|
|----------------------------------------------------------------|
|----------------------------------------------------------------|
|-4-5------------4-5------------4-5------------------------------|

Chorus                x4                                x4
|----------------------|---------------------------------|
|----------------------|---------------------------------|
|----------------------|---------------------------------|
|----8-8---------8-8-8-|---------------------------------|
|-7--6-6--7-7-7--6-6-6-|---------------------------------|
|-5-------5-5-5--------|-5-5-6-6-7-7-8-8-9-9-8-8-7-7-6-6-|

Solo - make some noise.


r - let ring
v - vibratto
            
Submit corrections

comments powered by Disqus
↑ Back to top | Nirvana Tabs for Buffys Pregnant. Lyrics for acoustic guitar and electric guitar. Tablatures and chords are parodies/interpretations of the original songs. You may use it for private study, scholarship, research or language learning purposes only