» » »

Nirvana, Breed Tabs (ver.5)

Artists:  A B C D E F G H I J K L M N O P Q R S T U V W X Y Z # 

Breed Tabs (ver.5)

Nirvana Tabs
 Rating:
4/5 (4 votes)
Breed lessons Tabs too difficult? Try these video lessons and learn fast
1
                -------------------------------------------------------------------------------
-------------------------------------------------------------------------------

Tuning:  Standard

(Studio effect intro)

w/ heavy distortion
Riff A
e|----------------------------------------------------------------------------------|
B|----------------------------------------------------------------------------------|
G|----------------------------------------------------------------------------------|
D|--4---4---4---4--/--7------2-------------------------------------------|      X16-|
A|--4---4---4---4--/--7------2------------------------------------------------------|
E|--2---2---0---2--/--5------0------------------------------------------------------|

Riff B (verse)
e|-----------------------------------------------------------------------------|
B|-11---11---11---11-----------------------------------------------------------|
G|-11---11---11---11--X7----9------9---7---------------------------------------|
D|--9-----9----9-----9---------------------------------------------------------|
A|-----------------------------------------------------------------------------|
E|-----------------------------------------------------------------------------|


Riff C (when Kurt shouts "ghost!", it sounds like "go")
e|-----------------------------------------------------------------------------|
B|-----------------------------------------------------------------------------|
G|-----------------------------------1-----------------------------------------|
D|--4---4---4---4---4---4---4---0----------------------------------------------|
A|--4---4---4---4---4---4---4--------------------------------------------------|
E|--2---2---2---2---2---2---2--------------------------------------------------|

Riff D (chorus)
e|-----------------------------------------------------------------------------|
B|-----------------------------------------------------------------------------|
G|--7--7---7---X--------------------5---5---5---X---4------4---X---------------|
D|--7--7---7---X---7------7---X---5---5---5---X---4------4---X-----------------|
A|--5---5---5---X---7------7---X---3---3---3---X---2------2---X----------------|
E|---------------------5------5---X--------------------------------------------|

After you play the chorus, go back to the origan*l riff  and
play it  8 times.  Then play the verse again and the chorus,
followed by the Solo.

Riff E (Solo)
e|-----------------------------------------------------------------------------|
B|---------------------------------------------12--12--12--12------------------|
G|-11--11--11--11--11--11--11--11--11--11--11--11------------------------------|
D|-----------------------------------------------------------------------------|
A|--9----9----9----9----9----9---9----9----9----9---9----9---------------------|
E|-----------------------------------------------------------------------------|

e|-------------------------------------------------------------------------------|
B|-12----------------------------------------------------------------------------|
G|-11----10-----0---9---14---14---14---14---14---14---14---14--------------------|
D|-------------------------------------------------------------------------------|
A|--9-----------------------12---12---12---12---12---12---12---12----------------|
E|-------------------------------------------------------------------------------|

e|-----------------------------------------------------------------------------|
B|-----------------------------------------------------------------------------|
G|--14---14---14---14---14------13---12---12--/---17---17----------------------|
D|-----------------------------------------------------------------------------|
A|--12---12---12---12---12------11---10---12--/---15---15----------------------|
E|-----------------------------------------------------------------------------|

Play that last chord about 24 more times, then...

e|-----------------------------------------------------------------------------|
B|-----------------------------------------------------------------------------|
G|--18---16---15---14--/--19---------------------------------------------------|
D|-----------------------------------play that chord 7 more times--------------|
A|--16---14---13---12--/--17---------------------------------------------------|
E|-----------------------------------------------------------------------------|

e|-----------------------------------------------------------------------------|
B|-----------------------------------------------------------------------------|
G|--20---20---21---21---22---22---22---22--------------------------------------|
D|-----------------------------------------------------------------------------|
A|--18---18---19---19---20---20---20---20--------------------------------------|
E|-----------------------------------------------------------------------------|

Riff F (outro "she said")
e|-----------------------------------------------------------------------------|
B|-----------------------------------------------------------------------------|
G|-----------------------------------------------------------------------------|
D|--4---4---------------------------4------------------------------------------|
A|--4---4----------------------------4-----------------------------------------|
E|--2---2---0---2---5------0------2--------------------------------------------|

Im pretty sure this is right, thanks for reading it, dont forget to rate it!

| /  slide up
| \  slide down
| h  hammer-on
| p  pull-off
| ~  vibrato
| +  harmonic
| x  Mute note
===============================================================================
            
Submit corrections

comments powered by Disqus
↑ Back to top | Nirvana Tabs for Breed. Lyrics for acoustic guitar and electric guitar. 1 Tablatures and chords are parodies/interpretations of the original songs. You may use it for private study, scholarship, research or language learning purposes only