>
 >
Blew 4

Blew 4 Guitar Tabs

Nirvana - Blew 4 chords, tabs, tablatures, lyrics

Guitar lessons | Add/correct | Request | Top 50 tabs Artists:  A B C D E F G H I J K L M N O P Q R S T U V W X Y Z 0-9

Blew 4 Guitar Tabs – Nirvana

CD, Sheet music, Poster

Do you like Blew 4? Share with your friends now
Bass TabsBass Tabs v2Drum TabsDrum Tabs v2TabsTabs v2Tabs v3Tabs v4Tabs v5Tabs v6


INTRO:

D-------------------------------------------------------------------|
A-------------------------------------------------------------------|
F-------------------------------------------------------------------|
C--0-0-3-5-5/6-6-5--3-3-0-3h5-3h5----0-0-3-5-5/6-6-5--3-3-0-3h5-3h5-|
G--0-0-3-5-5/6-6-5--3-3-0-3h5-3h5----0-0-3-5-5/6-6-5--3-3-0-3h5-3h5-|
C--0-0-3-5-5/6-6-5--3-3-0-3h5-3h5----0-0-3-5-5/6-6-5--3-3-0-3h5-3h5-|


VERSE:  x2

D-----------------------------------------------------|
A------------------------------------6-------------6--|
F---------5--------------------------0-------------0--|
C-0-3-5-5b-5b-5-5-3-3h5-5-3~-5\3/5-5-------5\3/5-5----|
G-----------------------------------------------------|
C-------------------------------------0-0-0---------0-|

D-------------------------------------------------------|
A--------------------------------------6-------------6--|
F---------5----------------------------0-------------0--|
C-0-3-5-5b-5b-5-5-3-3h5-5-3----5\3/5-5-------5\3/5-5----|
G---------------------------5~--------------------------|
C---------------------------------------0-0-0---------0-|


CHORUS:                          x2

D----------------------------------|-----------------------------------------------|
A----------------------------------|-----------------------------------------------|
F----------------------------------|-----------------------------------------------|
C-3-5-X-5-5-3-0-3-3-5-X-5-5-3-5/6--|-3-5-X-5-5-3-0-3-3-5-X-5-5-3-5/777777777777777-|
G-3-5-X-5-5-3-0-3-3-5-X-5-5-3-5/6--|-3-5-X-5-5-3-0-3-3-5-X-5-5-3-5/777777777777777-|
C-3-5-X-5-5-3-0-3-3-5-X-5-5-3-5/6--|-3-5-X-5-5-3-0-3-3-5-X-5-5-3-5/777777777777777-|


*VERSE*
*CHORUS*


SOLO:

D-----------------------------------------------------------------------------------------|
A-----------------------------------------------------------------------------------------|
F-12b--12r-12-12-12-12-10p0-10-12-12b-12b~-12b-12-12p10p0----------------10-12--12/15-14~-|
C---------------------------------------------------------0-12-10~-10h12------------------|
G-----------------------------------------------------------------------------------------|
C-----------------------------------------------------------------------------------------|

D------------------------------------------------------------------------------------|
A----------------20--20b-20b-20b-20-20b-20-20b-20b-20-20b-20-20~-20-20\18-18\17p15p0-|
F-17-17-19-17-17---19---------------19b----19b--------19b----------------------------|
C------------------------------------------------------------------------------------|
G------------------------------------------------------------------------------------|
C------------------------------------------------------------------------------------|

D--------------------------------------------------------------|
A-13h15-15-15~p13----------------------------------------------|
F-----------------14--13\12-12-12-12-10-12b-12b-12p10p0--------|
C-------------------------------------------------------10h12--|
G--------------------------------------------------------------|
C--------------------------------------------------------------|

D------------------------------------------------------------------------------|
A-------------------------------13-13b(15)-(15)-(15)-(15)-(15)-(15)-(15)r(13)--|
F-10h12-12-12-10-12b--2b-12p10p0-----------------------------------------------|
C------------------------------------------------------------------------------|
G------------------------------------------------------------------------------|
C------------------------------------------------------------------------------|
(Not perfect)


*CHORUS*


OUTRO:      x8

D-------------|
A-------------|
F-------------|
C-0-3-5-6-6-0-|
G-0-3-5-6-6-0-|
C-0-3-5-6-6-0-|
(Then just make a bunch of noise and end on open C.)




Well, there you go.  
Also, I might update this from time to time 
as I am constantly adding small things to make 
this sound better when I play it...





Comments


Popular Nirvana tabs & chords
About A Girl 5 Bass Tabs
Aero Zepplin 1 Bass Tabs
Born In A Junkyard Bass Tabs
Help Me Bass Tabs
Oh, The Guilt Bass Tabs
Jesus Doesnt Want Me For A Sunbeam Chords
Lithium 2 Chords
Blew 1 Drum Tabs
Blossom 1 Tabs
Pennyroyal Tea 1 Tabs


Song lyrics



↑ Back to top | Tablatures and chords are parodies/interpretations of the original songs. You may use it for private study, scholarship, research or language learning purposes only
© 2014 AZChords.com Contact us | Privacy policy | DMCA | Add/correct tabs | Request tabs | Top 50 tabs