>
 >
Bleach

Bleach Bass Tabs

Nirvana - Bleach chords, tabs, tablatures, lyrics

Guitar lessons | Add/correct | Request | Top 50 tabs Artists:  A B C D E F G H I J K L M N O P Q R S T U V W X Y Z 0-9

Bleach Bass Tabs – Nirvana

CD, Sheet music, Poster

Do you like Bleach? Share with your friends now
Bass Tabs
Nirvana 

-Contents--------------------------------------------------------------------------------------

Blew
Floyd The Barber
ABout A Girl
School
Love Buzz
Paper Cuts
Negative Creep
Scoff
Swap Meet
Mr. Moustache
Sifting
Big Cheese
Downer


-Blew-----------------------------------------------------------------------------------------
Drop D tuning

Intro

|---------------|
|---------------|
|---------------|
|-0-3-5-6-6-5-3-| x4

Verse

|---------------------------|
|---------------------------|
|---------------------------|
|-(0)-0-3-5-6-6-5-3-0-5-5-3-| (only played first time)

Chorus

|------------------------|
|------------------------|
|------------------------|
|-3-5--5-5-3--3-5--5-3-6-|

Outro

|--------------|
|--------------|
|--------------|
|-0-3-5-6-6--0-|


-Floyd The Barber------------------------------------------------------------------------------
Normal Tuning

Verse/Outro

|---------------|
|---------------|
|---------------|
|-0h1-0h1-0-0-0-| h = hammer on

Chorus

|--------------|
|--------------|
|-4-4---3-3----|
|----5-5---4-4-|

-About A Girl----------------------------------------------------------------------------------
Normal Tuning

Pre verse/Outro

|-----------|
|-----------|
|-----------|
|-0-0-3-3-3-| x4

Verse

|----------------------|
|---------------5--4---|
|-----------5-7---6--5-|
|-0-0-3-3-3------------|

Chorus

|--------------------------------------------|
|------------------------------------4-4-4-4-|
|-4-4-4--------------------4-4-4-------------|
|------4-4-4-2--2-2-2-2-0-------4-4-4--------|

After chorus

|-------------------|
|-------------------|
|-----7-7-0-0-0-3-3-|
|-0-0---------------|

-School----------------------------------------------------------------------------------------
Normal Tuning

Verse/Solo

|--------------------------------|
|--------------------------------|
|--------------------------------|
|-0-0-0-5b-0-0-5b-0-0-0-0-0-0-5b-| b = bend

Chorus

|-------------------------------------|
|-------------------------------------|
|-3--3-3-0-0-0-0-0--------------------| x1 and a half the 1st n 2nd time,
|------------------0--0-0-3-3-3-3-3-3-| x2 and a half for outro

-Love Buzz-------------------------------------------------------------------------------------
Normal Tuning

Intro

|-----------------7h9p7-|
|-8-(x)-(x)-6-8-9-------| (only do these the frst 2 times)
|-----------------------|
|-----------------------| play alot untill the guitar stops and kurt sings

Verse
                 (every 4th time)
|----------7h9p7-|----------7-9-|
|-8--6-8-9-------|-8--6-8-9-----|
|----------------|--------------|
|----------------|--------------|

Chorus
    (x4)                 (x1)               (x2)
|----7------|----7---7-8-8/10\8-7-------|----7------|
|-8---8-6-8-|-8----8--------------8-6-8-|-8---8-6-8-|
|-----------|---------------------------|-----------|
|-----------|---------------------------|-----------|

BIG Solo (right after 2nd Chorus)
      (x4)             (x2)            (x2)           (x1)             (X1)
|---------7-8---|---------------|---------------|-----------7-8-|---------------|
|-8-6-8-9-----8-|---------------|---------------|-4-6-8-6-8-----|---------------|
|---------------|-----------5---|-------5-------|---------------|-----------5-6-|
|---------------|-1-4-6-4-6---6-|-1-4-6---6-4-6-|---------------|-1-4-6-4-6-----|
      (x1)              (x1)                 (x1)
|-------7-8-10-8-|---------------|---------------------------|
|-4-6-8----------|---------------|---------------------------|
|----------------|-------5-6-8-6-|-5-6-8-6-5-----------4-5-6-|
|----------------|-1-4-6---------|-----------6-4-1-4-6-------|
           (x1)                       (x1)                 (x2)                   (x1)
|---------7-8-8/10\8-7---|-7-8-10-8-7----------------|---------------|------------------------|
|-4-6-8-9--------------8-|------------8-6------------|---------------|------------------------|
|------------------------|----------------8-6--4-----|-------5-------|-----4-6-8--8-8-6-4-----|
|------------------------|-----------------------6-4-|-1-4-6---6-4-6-|-4-6----------------6-4-|
       (x2)                          (x1)
|---------------|-----------------7---7-8-10-8-7-------------|
|---------------|---------6---6-8---8------------8-6---------|
|-------5-------|---4-6-8---8------------------------8-6-4---|
|-1-4-6---6-4-6-|-6----------------------------------------6-| 

Outro

|-----------------------------------|
|-----------------------------------|
|-----------------------------------|
|-6-6-6-6-6-6-6-6-6-6-6-6-6-6-6-6-6-|

-Paper Cuts------------------------------------------------------------------------------------
Normal Tuning

Intro/Verse

|----------------------|
|----------------------|
|----------------------|
|-0-0-0-0-0-0--0-0-0-0-|

Chorus 1st bit (The lady whome i feel eternal love for...)

|-----------------|
|-----------------|
|-----------------|
|-0-0-0-0-0-0-0-0-| Jus a load of 0's
 
2nd bit (I said soooo...)

|-------------------------|
|-------------------------|
|-------------------------|
|-1-2-2-3-3-4-4-5-6-5-5-5-|

3rd bit (Nirvana.. nirvana...)

|-------------------|
|-------------------|
|-------------------|
|-6-5-5-5---3-2-2-2-|

-Negative Creep--------------------------------------------------------------------------------
Tune down 1 whole step (or at least the E and A strings)

Intro/Verse

|---------------------|
|---------------------|
|---------------------|
|-0-0-/12-0-0-0-0-12\-|

Chorus

|-----------------------------|
|-----------------------------|
|-7-7-6-------------5-8-8-8-8-|
|-------4-4-4-4-7-7-----------|

-Scoff-----------------------------------------------------------------------------------------
Normal Tuning

Verse

|---------------|
|---------------|
|---------------|
|-2-2-1-0-2-2-1-|

Bit before Chorus (Gimme back my alcahol..)

|---------|
|---------|
|-----3-0-|
|-2-2-----|

Chorus (Heal a million, Kill a million...)

------------------|
|-----------------|
|-3~--5~----------|
|---------5-6-5-0-|

Bit after Chorus/Play twice for outro + leave out the slide
       (x3)       
|---------------|-------------|
|---------------|-------------|
|-7-7-6-0-7-7-6-|-7-7-6-0-----|
|---------------|---------7/2-| 

-Swap Meet--------------------------------------------------------------------------------------
Normal Tuning

Verse (after guitar Intro)

|---------------|
|---------------|
|---5-----4-----|
|-3---0-3---3-0-| 

Chorus

|-----------------------------------------|
|-----------------------------------------|
|-0~-/3~----------------------------------|
|---------3-0-1-3-1-0-1-3-0-3-1-0-1-3-1-0-|

ending of Chorus + Outro

|--------------------|
|--------------------|
|--------------------|
|-2-2--1-1--2-2-0-7\-|

-Mr. Moustache----------------------------------------------------------------------------------
Normal Tuning

Verse

|---------------------------------|
|---------------------------------|
|---2---------------1-------------|
|-3---3-2-1-0-1-2-3---3-2-1-0-1-2-|

Chorus 
         (x1)                (x1)                (x1)                  (x1)
|---------------------|-----------------|---------------------|-------------------|
|---------------------|-----------------|---------------------|-------------------|
|-2--3----------------|-2--3------------|-2--3----------------|-2--3--------------|
|-------3-3-3-3-3-2-0-|-------3-3-3-3-3-|-------3-3-3-3-3-2-0-|-------3-3-3-3-3-4-|
 (x2 1st time) (x4 2nd time)
|--------------------------------|
|--------------------------------|
|--------------------------3~-6~-|
|-5-5-x-5-5-5--5-5-x-5-5-5-------|

Outro = Verse but slower

-Sifting----------------------------------------------------------------------------------------
Normal Tuning

Intro

|---------|
|---------|
|---------|
|-0-0-0-0-| x4

Verse

|----------------------|
|----------------------|
|-------3~-------2-1-0-|
|-0-0-0----0-0-0-------|

Bit before Chorus (Your eyes...)

|----------|
|----------|
|-------5~-|
|-0-0-0----|

Chorus

|--------------------|
|--------------------|
|-3~-0-0-0-0-0-0-0-0-|
|--------------------|

During guitar solo

|---------|---------|---------|---------|
|---------|---------|---------|---------|
|---2-1-0-|---2-1-3-|---2-1-4-|---2-----| Pretty much randomly goes between these.
|-0-------|-0-------|-0-------|-0---1-0-| Play the first one the most.

-Big Cheese------------------------------------------------------------------------------------
Normal Tuning

verse

|------|
|------|
|-3~-2-|
|------|

Chorus
                 (x2)                              (x2)
|-------------------------------------|---------------------------------|
|-------------------------------------|-4-4-4-4-4-4-4-4-4-4-4-4-5--5--2-|
|-------------------------------------|---------------------------------|
|-2-2-2-2-2-2-2-2-2-2-2-2-2-2-3--3--0-|---------------------------------|

Bit after Chorus

|-------------|
|---0---------|
|-----1-0-----|
|-2-------3-0-|

Outro

|---------|
|---------|
|-3-3-3-3-| plenty of times, till end.
|---------|

-Downer---------------------------------------------------------------------------------------
Normal Tuning

Verse

|-----------------|
|-----------------|
|-----------------|
|-0-0-0-0-0-8-8-8-|

chorus

|-------------------|
|-------------------|
|-------------------|
|-6-7-8-7-6-7-8-8-7-|

Bridge (Somebody said that they're not much like i am...)

|-------------|
|-------------|
|-------5~-6~-|
|-5~-6~-------|

Outro

|-------------|---|
|-------------|---|
|-------------|---|
|-0--0-0-0-8~-|-0-|

-End-------------------------------------------------------------------------------------------





Comments


Popular Nirvana tabs & chords
Dive 3 Bass Tabs
Come As You Are 2 Chords
Jesus Doesnt Want Me For A Sunbeam 3 Chords
Big Cheese 1 Tabs
Blew 1 Tabs
Come As You Are Intro 1 Tabs
Floyd The Barber 3 Tabs
Mrs Butterworth 1 Tabs
Sad 1 Tabs
Spank Thru Tabs


Song lyrics



↑ Back to top | Tablatures and chords are parodies/interpretations of the original songs. You may use it for private study, scholarship, research or language learning purposes only
© 2014 AZChords.com Contact us | Privacy policy | DMCA | Add/correct tabs | Request tabs | Top 50 tabs