>
 >
Black And White Blues

Black And White Blues Guitar Tabs

Nirvana - Black And White Blues chords, tabs, tablatures, lyrics

Guitar lessons | Add/correct | Request | Top 50 tabs Artists:  A B C D E F G H I J K L M N O P Q R S T U V W X Y Z 0-9

Black And White Blues Guitar Tabs – Nirvana

CD, Sheet music, Poster

Do you like Black And White Blues? Share with your friends now
Tabs
_____________________________________________________________________________

Black And White Blues  -  Kurt Cobain  -  1988 4-Track-Demo
_____________________________________________________________________________


       wasdqe at gmx.de

Major Barre Chord       Dominant 7th Chord      Dominant 7th Chord
e |-|o|-|-|-|           e |-|o|-|-|-|           e |-|o|-|-|-|
b |-|o|-|-|-|           b |-|o|-|-|-|           b |-|-|-|-|o|
g |-|-|o|-|-|           g |-|-|o|-|-|           g |-|-|o|-|-|
d |-|-|-|o|-|           d |-|o|-|-|-|           d |-|o|-|-|-|
a |-|-|-|o|-|           a |-|-|-|o|-|           a |-|-|-|o|-|
e |-|o|-|-|-|           e |-|o|-|-|-|           e |-|o|-|-|-|


Tune down 1/2 step

Tempo 112


Guitar 1
e--------------------------------------------------------5-----------5----5--|
b-------8---11------------8---11----------------------5------------8----8----|
g------------9----9------------9----9---------------6------------6-----------|
d--------(8)-8--8----------(8)----8--------------5---------------------------|
a----------------------------------------------7-----------------------------|
e--8-8---------------7-8------------------4-5--5------------4/5--------------|
Guitar 2
d----------------------------------------------------------------------------|
a-----------10----------------10----------------(4)--------------------------|
e-------------------------------------------5-----------------5--------------|

Guitar 1
e----8---------------8---------------------------------5------------5----5---|
b-------8-11-------8----8-11------------------------5------------8-------8---|
g---------------9---------------9-----------------6------------6-------6-----|
d-------------8---------------8----------------5-----------------------------|
a--------------------------------------------7------------7------------------|
e-----------------------------------------5-----------------5----------------|
Guitar 2
d----------------------------------------------------------------------------|
a---------10--------------10-------------------------------------------------|
e--7-8-------------7-8--------------------5-----------------5----------------|

Guitar 1
e---------------7------------7----7------------------8-------------8-----8---|
b------------7------------10---10-----------------8-------------11----11-----|
g----------8------------8-----------------------9-------------9--------------|
d-------7------------------------------------8----------10-------------------|
a-----9------------9----------------------10---------------------------------|
e--7-----------------7-----------------8-------------------8-----------------|
Guitar 2
d----------------------------------------------------------------------------|
a----------------------------------------------------------------------------|
e--7-------7---------7-------------------------------------8-----------------|

Guitar 1
e------------------9--------------9----9-------------------------------------|
b---------------9--------------9-----9----10--10-10--10-10--10----------6-6--|
g-----------10-10-----------10------------11--11-11--11-11--11--10\-----4-4--|
d------------------------9----------------10--10-10--10-10--10---9\----(3-3)-|
a----(11)11-----------11----------------------12-12--12-12--12--11\----------|
e--9-------------------------------------------------------------9\\3--------|
Guitar 2
d-----------------------(9)--------------------------------------------------|
a-----11-----------------------------------------12-----12-------------------|
e--9-------------------------------------------------------------9-----------|

Guitar 1
e--5-5--5-----6--6--------------2-2-2-2--------------------------------------|
b--5-5--5---5-6--6---7-10--10---2-2-2-2--------------------------------------|
g--6-6--6---6-7--7---8--8---8---3-3-3-3--------------------------------------|
d--7-7--7---7-6--6---7--7---7---2-2-2-2--------------------------------------|
a---(7)(7)--7-8--8---9--9---9--(4-4-4-4)-------------------------------------|
e---(5)----(5)6--6---7--7---7--(2-2-2-2)-------------------------------------|
Guitar 2
d-------------------------------2-2-2-2--------------------------------------|
a-----------------------2---2------------------------------------------------|
e----5---------------2-------------------------------------------------------|

Guitar 1
e--5-5--5---6-6--6--------------2-2--2-2-------------------------------------|
b--5-5--5---6-6--6--10-10--10---2-2--2-2-------------------------------------|
g--6-6--6---7-7--7---8--8---8---3-3--3-3-------------------------------------|
d--7-7--7---6-6--6---7--7---7---2-2--2-2-------------------------------------|
a--7-7--7---8-8--8---9--9---9---4-4--4-4-------------------------------------|
e--5-5--5---6-6--6---7--7---7---2-2--2-2-------------------------------------|
Guitar 2
d---------------------------------2--2(0)------------------------------------|
a-(2)-------------------2---2------------------------------------------------|
e----5--5------------2-------------------------------------------------------|

Guitar 1
e--5-5--5---6-6--6--------------2-2--2-2---5-5--5---2-2--2-2---5-5--5---5-5--|
b--5-5--5---6-6--6--10-10--10---2-2--2-2---5-5--5---2-2--2-2---5-5--5---5-5--|
g--6-6--6---7-7--7---8--8---8---3-3--3-3---6-6--6---3-3--3-3---6-6--6---6-6--|
d--7-7--7---6-6--6---7--7---7---2-2--2-2---7-7--7---2-2--2-2---7-7--7---7-7--|
a--7-7--7---8-8--8---9--9---9---4-4--4-4---7-7--7---4-4--4-4---7-7--7---7-7--|
e--5-5--5---6-6--6---7--7---7---2-2--2-2---5-5--5---2-2--2-2---5-5--5---5-5--|
Guitar 2
d---------------------------------2--2----------------2--2-------------------|
a-----------------------2---2------------------------------------------------|
e----5--5------------2----------2------------5--5--(5)-----2-----5--5---5-5--|

Guitar 1
e-------------------------0----0----0---------------------------2--2-2--2-2--|
b-------------------------0----0----3---------------------------2--2-2--2-2--|
g---------------6---5-6---1----1-(1)1-----------------6---5-6---3--3-3--3-3--|
d-------6-7--------------(2)-2----2-----------6-7---------------2--2-2--2-2--|
a--7-9-----------------------------------7-9--------------------4--4-4--4-4--|
e---------------------------------------------------------------2--2-2--2-2--|
Guitar 2
d----------------------------2----2-2---------------------------2--2----2----|
a----------------------------------------------------------------------------|
e--0-2--4-5-----5-5(2)2------------------0------5-------5\2(2)2--------------|

Guitar 1
e-------------------------8-7--5--------------8-7--5-------------------------|
b----------------------------------------------------------------------------|
g---------------6--5-6-------------------------------------------------------|
d-------6-7------------------------------------------------------------------|
a--7-9-----------------------------------------------------------------------|
e----------------------------------------------------------------------------|
Guitar 2
d----------------------------------------------------------------------------|
a----------------------------------------------------------------------------|
e---------5--------2------8-7--5----8-7--5----8-7--5--7b(8)------------------|

Guitar 1
e---5--5-5----(5)(5-5)--------(5)--------------------------------------------|
b---5--5-5---5-5--5-5---8-8--8-8--8-8--5-------------------------------------|
g---6--6-6---6-6--6-6---6-6--6-6--6-6----6-/(10)-----------------------------|
d---7--7-7---5-5--5-5---5-5--5-5--5-5------/---------------------------------|
a--(7)(7-7)--7-7--7-7---7-7--7-7--7-7------/---------------------------------|
e--(5)(5-5)--5-5--5-5---5-5--5-5--5-5------/---------------------------------|
Guitar 2
d------------5-5-------------------------------------------------------------|
a------7----------------------------7----------------------------------------|
e---5-------------------5-5-------5--------5/(9)-----------------------------|

Guitar 1
e------(9)--------------------------------------9----------------------------|
b-------9--9-------9---9--9---12-12--12-12--12-12--9-------------------------|
g--10--10-10---10-10--10-10---10-10--10-10--10-10----10----------------------|
d--11--11-11----9--9---9--9----9--9---9--9---9--9----------------------------|
a--11--11-11---11-11--11-11---11-11--11-11--11-11----------------------------|
e---9--(9)(9)---9--9---9--9----9--9---9--9---9--9----------------------------|
Guitar 2
d----------------------------------------------------------------------------|
a----------------------------------------------------------------------------|
e-/(9)----(9)----(11)----------9--9---9--9---9--9-----9\---------------------|

Guitar 1
e---(5)-----------------------5----------------------------------------------|
b--5-5--5-5---8--8-8---5-5--5-5---8--8-8-------------------------------------|
g--6-6--6-6---6--6-6---6-6--6-6---6--6-6-------------------------------------|
d--7-7--7-7---5--5-5---7-7--7-7---5--5-5-------------------------------------|
a--7-7--7-7---7--7-7---7-7--7-7---7--7-7-------------------------------------|
e--5-5--5-5---5--5-5---5-5--5-5---5--5-5-------------------------------------|
Guitar 2
d----------------------------------------------------------------------------|
a-------------7--------7-7--7-7---7-(7-7)------------------------------------|
e----5--5--------------------------------------------------------------------|

Guitar 1
e----------------7------------7-----7-----------------8-------------8-----8--|
b--------------7-----------10----10-----------------8------------11----11----|
g------------8-----------8------------------------9------------9-------------|
d---------7------------------------------------8------------8----------------|
a-------9-----------9-----------------------10-----------10------------------|
e--5-7----------------7------------------8-----------------------------------|
Guitar 2
d-----------------------------9------------------------------------10--------|
a---------------------------9-------------------(10)-------------------------|
e----7----------------7-----------------(8)----------------(8)---------------|

Guitar 1
e------------------9--------------9-----9--10--10-10--10-10--10---9----------|
b----------------9-------------12----12----10--10-10--10-10--10---9----6--9--|
g-------------10------------10-------------11--11-11--11-11--11--10----7--7--|
d----------9-------------------------------10--10-10--10-10--10---9----6--6--|
a-------11------------11-------------------12--12-12--12-12--12--11----8--8--|
e--9-9-------------------9-----------------10--10-10--10-10--10---9----6--6--|
Guitar 2
d--------------------------------11------------10-10--10-10--10--------3--6--|
a--------(11)------------------11--------------------------------------------|
e----9-----------------------9-------------10---------------------9\(4)------|

Guitar 1
e--5-5--5---6-6--6--------------2-2--2-2-------------------------------------|
b--5-5--5---6-6--6--10-10--10---2-2--2-2-------------------------------------|
g--6-6--6---7-7--7---8--8---8---3-3--3-3-------------------------------------|
d--7-7--7---6-6--6---7--7---7---2-2--2-2-------------------------------------|
a--7-7--7---8-8--8---9--9---9---4-4--4-4-------------------------------------|
e--5-5--5---6-6--6---7--7---7---2-2--2-2-------------------------------------|
Guitar 2
d---------------------------------2--2(2)------------------------------------|
a-----------------------2---2---2--------------------------------------------|
e----5------2/7------2-------------------------------------------------------|

Guitar 1
e--5-5--5---6-6--6--------------2-2--2-2-------------------------------------|
b--5-5--5---6-6--6--10-10--10---2-2--2-2-------------------------------------|
g--6-6--6---7-7--7---8--8---8---3-3--3-3-------------------------------------|
d--7-7--7---6-6--6---7--7---7---2-2--2-2-------------------------------------|
a--7-7--7---8-8--8---9--9---9---4-4--4-4-------------------------------------|
e--5-5--5---6-6--6---7--7---7---2-2--2-2-------------------------------------|
Guitar 2
d-----------------------7---7-----2--2-2-------------------------------------|
a----------------------------------------------------------------------------|
e----5-(5)-(6/7)-7---7----------2--------------------------------------------|

Guitar 1
e--5-5--5---6-6--6--------------2-2--2-2---5-5--5---2-2--2-2---5-5--5---5-5--|
b--5-5--5---6-6--6--10-10--10---2-2--2-2---5-5--5---2-2--2-2---5-5--5---5-5--|
g--6-6--6---7-7--7---8--8---8---3-3--3-3---6-6--6---3-3--3-3---6-6--6---6-6--|
d--7-7--7---6-6--6---7--7---7---2-2--2-2---7-7--7---2-2--2-2---7-7--7---7-7--|
a--7-7--7---8-8--8---9--9---9---4-4--4-4---7-7--7---4-4--4-4---7-7--7---7-7--|
e--5-5--5---6-6--6---7--7---7---2-2--2-2---5-5--5---2-2--2-2---5-5--5---5-5--|
Guitar 2
d---------------------------------2--2-------------------2-------------------|
a-----------------------2---2----------2---2----------4----------------------|
e--2-5--5--(5)-------2----------2------------5--5---5------------5--5-2---5--|

Tablature Symbols

/       Slide Up
\       Slide Down
()      Ghost Note

Though this tabulature is rather precise, the song is not meant to be played
too accurately.

Feel free to contact me, if you have any questions.





Comments


Popular Nirvana tabs & chords
Dumb 2 Bass Tabs
Even In His Youth 3 Bass Tabs
Opinion Bass Tabs
Aneurysm 2 Tabs
Anorexorcist (Intro) Tabs
Do You Love Me? Tabs
I Hate Myself 1 Tabs
Lake Of Fire 3 Tabs
Oh Me Live Tabs
Oh Me Ukulele


Song lyrics



↑ Back to top | Tablatures and chords are parodies/interpretations of the original songs. You may use it for private study, scholarship, research or language learning purposes only
© 2014 AZChords.com Contact us | Privacy policy | DMCA | Add/correct tabs | Request tabs | Top 50 tabs