» » »

Nirvana, Big Cheese Bass tabs (ver.3)

Artists:  A B C D E F G H I J K L M N O P Q R S T U V W X Y Z # 

Big Cheese Bass tabs (ver.3)

Nirvana Tabs
Rating:
0/5 (0 votes)
Big Cheese lessons Tabs too difficult? Try these video lessons and learn fast
                -----------------------------------------------------------------------------
			    Nirvana - Big Cheese
-----------------------------------------------------------------------------


Tuning: Standard

=============================================================================

Intro:

G|-----------------|-----------------|-----------------|-----------------|
D|-----------------|-----------------|-----------------|-----------------|
A|------REST-------|------REST-------|------REST-------|------REST-------|
E|-----------------|-----------------|-----------------|-----------------|

G|-----------------|-----------------|-----------------|-----------------|
D|-10----9-x-x-x-x-|-10----9-x-x-x-x-|-10----9-x-x-x-x-|-10----9-x-x-x-x-|
A|-----------------|-----------------|-----------------|-----------------|
E|-----------------|-----------------|-----------------|-----------------|

G|-----------------|-----------------|-----------------|-----------------|
D|-----------------|-----------------|-----------------|-----------------|
A|-3----2-x-x-x-x--|-3----2-x-x-x-x--|-3----2-x-x-x-x--|-3----2-x-x-x-x--|
E|-----------------|-----------------|-----------------|-----------------|

Verse:

G|-----------------|-----------------|
D|*----------------|----------------*|
A|*-3----2-x-x-x-x-|-3----2-x-x-x-x-*|
E|-----------------|-----------------|

Chorus:

G|-----------------|-----------------|-----------------|-----------------|
D|-----------------|-----------------|-----------------|-----------------|
A|-----------------|-----------------|-----------------|-----------------|
E|--2--2--2-2--2---|-2-2-2-3---3-0---|--2--2--2-2--2---|-2-2-2-3---3-0---|

G|-----------------|-----------------|-----------------|-----------------|
D|-4-4-4-4-4-4-4-4-|-4-4-4-4-5-5-5-2-|-4-4-4-4-4-4-4-4-|-4-4-4-4-5-5-5-2-|
A|-----------------|-----------------|-----------------|-----------------|
E|-----------------|-----------------|-----------------|-----------------|

-2nd Verse

-2nd Chorus

Interlude:

G|-----------------|-----------------|-----------------|-----------------|
D|-----5-----------|-----5-----------|*----5-----------|-----5----------*|
A|--2----6--5-3-0--|--2----6--5-3-0--|*-2----6--5-3-0--|--2----6--5-3-0-*|
E|-----------------|-----------------|-----------------|-----------------|

-3rd Verse

-3rd Chorus

-2nd Interlude

4th Chorus:

G|-----------------|-----------------|-----------------|-----------------|
D|-----------------|-----------------|-----------------|-----------------|
A|-----------------|-----------------|-----------------|-----------------|
E|--2--2--2-2--2---|-2-2-2-3---3-0---|--2--2--2-2--2---|-2-2-2-3---3-0---|

G|-----------------|-----------------|-----------------|-----------------|
D|-----------------|-----------------|-----------------|-----------------|
A|-----------------|-----------------|-----------------|-----------------|
E|--2--2--2-2--2---|-2-2-2-3---3-0---|--2--2--2-2--2---|-2-2-2-3---3-0---|

G|-----------------|-----------------|-----------------|-----------------|
D|-4-4-4-4-4-4-4-4-|-4-4-4-4-5-5-5-2-|-4-4-4-4-4-4-4-4-|-4-4-4-4-5-5-5-2-|
A|-----------------|-----------------|-----------------|-----------------|
E|-----------------|-----------------|-----------------|-----------------|

G|-----------------|-----------------|-----------------|-----------------|
D|-4-4-4-4-4-4-4-4-|-4-4-4-4-5-5-5-2-|-4-4-4-4-4-4-4-4-|-4-4-4-4-5-5-5-2-|
A|-----------------|-----------------|-----------------|-----------------|
E|-----------------|-----------------|-----------------|-----------------|

-3rd Interlude

Outro:

G|-----------------|-----------------|-----------------|-----------------|
D|-----------------|-----------------|-----------------|-----------------|
A|-----------------|-----------------|-----------------|-----------------|
E|-7-7-7-7-7-7-7-7-|-7-7-7-7-7-7-7-7-|-7-7-7-7-7-7-7-7-|-7-7-7-7-7-7-7-7-|

G|-----------------|-----------------|-----------------|-----------------|
D|-----------------|-----------------|-----------------|-----------------|
A|-----------------|-----------------|-----------------|-----------------|
E|-7-7-7-7-7-7-7-7-|-7-7-7-7-7-7-7-7-|-7-7-7-7-7-7-7-7-|-7-7-7-7-7-7-7-7-|

G|-----------------|-----------------|-----------------|-----------------|
D|-----------------|-----------------|-----------------|-----------------|
A|---------REST----|------REST-------|------REST-------|------REST-------|
E|-7---------------|-----------------|-----------------|-----------------|

=============================================================================
            

comments powered by Disqus
↑ Back to top | Nirvana Bass for Big Cheese. Lyrics for acoustic guitar and electric guitar. Tablatures and chords are parodies/interpretations of the original songs. You may use it for private study, scholarship, research or language learning purposes only