» » »

Nirvana, Big Cheese Bass tabs (ver.2)

Artists:  A B C D E F G H I J K L M N O P Q R S T U V W X Y Z # 

Big Cheese Bass tabs (ver.2)

Nirvana Tabs
 Rating:
4/5 (4 votes)
Big Cheese lessons Tabs too difficult? Try these video lessons and learn fast
1
                Intro:

G-------------------------------|
D--------------------10-9-------|
A-------------------------------|
E-------------------------------|

(Play about 8 or 10 times)

All Verses:

G-------------------------------|
D-------------------------------|
A--3-2--------------------------|
E-------------------------------|

Chorus:

G-------------------------------|
D-------------------------------|
A-------------------------------|
E-222-0--2--000-2-333-----------|

Pre Chorus (Play it until the solo ends)

G-------------------------------|
D-------------------------------|
A-22-654-0----------------------|
E-------------------------------|
            
Submit corrections

comments powered by Disqus
↑ Back to top | Nirvana Bass for Big Cheese. Lyrics for acoustic guitar and electric guitar. 1 Tablatures and chords are parodies/interpretations of the original songs. You may use it for private study, scholarship, research or language learning purposes only