» » »

Nirvana, Beeswax Bass tabs (ver.2)

Artists:  A B C D E F G H I J K L M N O P Q R S T U V W X Y Z # 

Beeswax Bass tabs (ver.2)

Nirvana Tabs
 Rating:
4/5 (4 votes)
Beeswax lessons Tabs too difficult? Try these video lessons and learn fast
1
                Song is in Eb standard (every string tuned down a half step).


Intro/verses:
Gb------------------------|
Db------------------------|
Ab------------------------|
Eb--7/6-6-6-6-6-5-5-4-4-3-|

Verse into chorus:
Gb----------------------------|
Db----------------------------|
Ab----------------------5-5-5-|
Eb--7/6-6-6-6-6-5-5-3-3-------|

Chorus:        +repeat to here a few times
Gb-------------|-----------------|
Db-------------|-----------------|
Ab---------3-2-|-------------3-2-|
Eb--0-3/-0-----|-0-3/-0-3/-0-----|

Breakdown:
Gb----------|
Db----------|
Ab----------|
Eb--1-1-1-1-|

Breakdown back to chorus:
Gb------------|
Db------------|
Ab------5-5-5-|
Eb--3-3-------|
            
Submit corrections

comments powered by Disqus
↑ Back to top | Nirvana Bass for Beeswax. Lyrics for acoustic guitar and electric guitar. 1 Tablatures and chords are parodies/interpretations of the original songs. You may use it for private study, scholarship, research or language learning purposes only