» » »

Been A Son Bass tabs (ver.1)

Artists:  A B C D E F G H I J K L M N O P Q R S T U V W X Y Z # 

Been A Son Bass tabs (ver.1)

Nirvana
Rating:
0/5 (0 votes)

Hard to play? Try these video lessons and learn fast.
                I was tired of looking for a correct solo tab, so I made my own.
This is tabbed from the Nirvana BLEW EP.


Verse

G-----------------------------------------------|
D-----------------------------------------------|
A-5-5-3-2-0--5-5-3-2-0--------------------------|
E-----------------------------------------------|

Chorus

G-----------------------------------------------|
D--------333------------------------------------|
A-------------------3-20------------------------|
E--3-33------0-000------------------------------|

play at end of chorus

G-----------------------------------------------|
D--------333-22222222---------------------------|
A-----------------------------------------------|
E--3-33-----------------------------------------|

solo(DISTORTION!!!!!!)

G----------------777-5-4-2--5554542-7-7-7-7--------------------|
D--------------------------------------------------------------|
A---5-5-320--5-------------------------------3-2-0-------------|
E--------------------------------------------------------------|

G---------------------------------------------7-7-7------------|
D------------------777-----------------------------------------|
A--5-5-3-2-0-----5-----3-2-0---2-3322----------------3-2-0-----|
E---------------------------------------5-3--------------------|
            
Hard to play? Try these video lessons and learn fast. | Correct




comments powered by Disqus
↑ Back to top | Tablatures and chords are parodies/interpretations of the original songs. You may use it for private study, scholarship, research or language learning purposes only